tablaturas, partituras y acordes para guitarra
Busca por banda/artista:
 
y/o título de la canción:
A B C D E F G H I J K L M N O P Q R S T U V W X Y Z 0 1 2 3 4 5 6 7 8 9 / Top 100 tabs
Categorías
Usuarios
usuario:
Darse de alta
password:
Artistas más visitados
Publicidad
TOP acordes y tablaturas de Elvis presley


Estás en: Inicio > Letra E > Acordes y tablaturas de Elvis presley > A little less conversation
A little less conversation
de Elvis presley
Puntúa este acorde/tab:      
(0.8/5)
Reportar este acorde/tab
  Añadir a tus favoritos
  Imprimir
Bass
                                                                               
G||------------------|------------------|------------------|------------------|
D||------------------|------------------|------------------|------------------|
A||------------------|------------------|------------------|------------------|
E||------------------|------------------|------------------|------------------|


                                                                            
------------------|------------------|------------------|------------------|
------------------|------------------|------------------|------------------|
------------------|------------------|------------------|------------------|
------------------|------------------|------------------|------------------|


                                                              
|------------------------------|-----------------------------|
|*-----------------------------|-----------------------------|
|*--------7----------------5-7-|--------7----------------5-7-|
|---0--0------x-x-5-7--7-7-----|--0--0------x-x-5-7--7-7-----|


                                                            
-----------------------------|-----------------------------|
-----------------------------|-----------------------------|
--------7----------------5-7-|--------7----------------5-7-|
--0--0------x-x-5-7--7-7-----|--0--0------x-x-5-7--7-7-----|


                                                            
-----------------------------|-----------------------------|
-----------------------------|-----------------------------|
--------7----------------5-7-|--------7----------------5-7-|
--0--0------x-x-5-7--7-7-----|--0--0------x-x-5-7--7-7-----|


                                                            
-----------------------------|-----------------------------|
-----------------------------|-----------------------------|
--------7----------------5-7-|--------7----------------5-7-|
--0--0------x-x-5-7--7-7-----|--0--0------x-x-5-7--7-7-----|


                                                        
---------------------------|---------------------------|
---------------------------|---------------------------|
---------------------------|-------------5--5--5--5-5--|
--0--0--0--0-3--3--3--3-3--|--5--5--5--5---------------|


                                                            
-----------------------------|-----------------------------|
-----------------------------|-----------------------------|
--7--7--7--7-------------5h7-|--------7----------------5-7-|
-------------7--7-7--7-7-----|--0--0------x-x-5-7--7-7-----|


                                                            
-----------------------------|-----------------------------|
-----------------------------|-----------------------------|
--------7----------------5-7-|--------7----------------5-7-|
--0--0------x-x-5-7--7-7-----|--0--0------x-x-5-7--7-7-----|


                                                            
-----------------------------|-----------------------------|
-----------------------------|-----------------------------|
--------7----------------5-7-|--------7----------------5-7-|
--0--0------x-x-5-7--7-7-----|--0--0------x-x-5-7--7-7-----|


                                                            
-----------------------------|-----------------------------|
-----------------------------|-----------------------------|
--------7----------------5-7-|--------7----------------5-7-|
--0--0------x-x-5-7--7-7-----|--0--0------x-x-5-7--7-7-----|


                                                            
-----------------------------|-----------------------------|
-----------------------------|-----------------------------|
--------7----------------5-7-|--------7----------------5-7-|
--0--0------x-x-5-7--7-7-----|--0--0------x-x-5-7--7-7-----|


                                                            
-----------------------------|-----------------------------|
-----------------------------|-----------------------------|
--------7----------------5-7-|--------7----------------5-7-|
--0--0------x-x-5-7--7-7-----|--0--0------x-x-5-7--7-7-----|


                                                            
-----------------------------|-----------------------------|
-----------------------------|-----------------------------|
--------7----------------5-7-|--------7----------------5-7-|
--0--0------x-x-5-7--7-7-----|--0--0------x-x-5-7--7-7-----|


                                                            
-----------------------------|-----------------------------|
-----------------------------|-----------------------------|
--------7----------------5-7-|--------7----------------5-7-|
--0--0------x-x-5-7--7-7-----|--0--0------x-x-5-7--7-7-----|


                                                            
-----------------------------|-----------------------------|
-----------------------------|-----------------------------|
--------7----------------5-7-|--------7----------------5-7-|
--0--0------x-x-5-7--7-7-----|--0--0------x-x-5-7--7-7-----|


                                                          
-----------------------------|---------------------------|
-----------------------------|---------------------------|
--------7----------------5-7-|---------------------------|
--0--0------x-x-5-7--7-7-----|--0--0--0--0-3--3--3--3-3--|


                                                          
---------------------------|-----------------------------|
---------------------------|-----------------------------|
-------------5--5--5--5-5--|--7--7--7--7-------------5h7-|
--5--5--5--5---------------|-------------7--7-7--7-7-----|


                                                                                
-----------------------------|-----------------------------|-------------------|
-----------------------------|-----------------------------|-------------------|
--------7----------------5-7-|--------7----------------5-7-|-------------------|
--0--0------x-x-5-7--7-7-----|--0--0------x-x-5-7--7-7-----|--0----------------|


                                                                              
----------------------------|-------------------|----------------------------|
-----------4----------------|-------------------|-----------4----------------|
---------5----7--5-----5-7--|-------------------|---------5----7--5-----5-7--|
--0--5-7------------7-------|--0----------------|--0--5-7------------7-------|


                                                            
-------------------|-------------------|-------------------|
-------------------|-------------------|-------------------|
-------------------|-------------------|-------------------|
--0----------------|--3----------------|--5----------------|


                                                    
----------------------|----------------------------|
----------------------|--9--9--9--9--9--9--9-7-----|
----------------------|------------------------9-7-|
--7----7----7----7----|----------------------------|


                                                            
-----------------------------|-----------------------------|
-----------------------------|-----------------------------|
--------7----------------5-7-|--------7----------------5-7-|
--0--0------x-x-5-7--7-7-----|--0--0------x-x-5-7--7-7-----|


                                                            
-----------------------------|-----------------------------|
-----------------------------|-----------------------------|
--------7----------------5-7-|--------7----------------5-7-|
--0--0------x-x-5-7--7-7-----|--0--0------x-x-5-7--7-7-----|


                                                        
---------------------------|---------------------------|
---------------------------|---------------------------|
---------------------------|-------------5--5--5--5-5--|
--0--0--0--0-3--3--3--3-3--|--5--5--5--5---------------|


                                                            
-----------------------------|-----------------------------|
-----------------------------|-----------------------------|
--7--7--7--7-------------5h7-|--------7----------------5-7-|
-------------7--7-7--7-7-----|--0--0------x-x-5-7--7-7-----|


                                                            
-----------------------------|-----------------------------|
-----------------------------|-----------------------------|
--------7----------------5-7-|--------7----------------5-7-|
--0--0------x-x-5-7--7-7-----|--0--0------x-x-5-7--7-7-----|


                                                            
-----------------------------|-----------------------------|
-----------------------------|-----------------------------|
--------7----------------5-7-|--------7----------------5-7-|
--0--0------x-x-5-7--7-7-----|--0--0------x-x-5-7--7-7-----|


                                                            
-----------------------------|-----------------------------|
-----------------------------|-----------------------------|
--------7----------------5-7-|--------7----------------5-7-|
--0--0------x-x-5-7--7-7-----|--0--0------x-x-5-7--7-7-----|


                                                            
-----------------------------|-----------------------------|
-----------------------------|-----------------------------|
--------7----------------5-7-|--------7----------------5-7-|
--0--0------x-x-5-7--7-7-----|--0--0------x-x-5-7--7-7-----|


                                                            
-----------------------------|-----------------------------|
-----------------------------|-----------------------------|
--------7----------------5-7-|--------7----------------5-7-|
--0--0------x-x-5-7--7-7-----|--0--0------x-x-5-7--7-7-----|


                                                            
-----------------------------|-----------------------------|
-----------------------------|-----------------------------|
--------7----------------5-7-|--------7----------------5-7-|
--0--0------x-x-5-7--7-7-----|--0--0------x-x-5-7--7-7-----|


                                                            
-----------------------------|-----------------------------|
-----------------------------|-----------------------------|
--------7----------------5-7-|--------7----------------5-7-|
--0--0------x-x-5-7--7-7-----|--0--0------x-x-5-7--7-7-----|


                                                                                
-----------------------------|-----------------------------|-------------------|
-----------------------------|-----------------------------|-------------------|
--------7----------------5-7-|--------7----------------5-7-|-------------------|
--0--0------x-x-5-7--7-7-----|--0--0------x-x-5-7--7-7-----|--0----------------|


                                                                              
----------------------------|-------------------|----------------------------|
-----------4----------------|-------------------|-----------4----------------|
---------5----7--5-----5-7--|-------------------|---------5----7--5-----5-7--|
--0--5-7------------7-------|--0----------------|--0--5-7------------7-------|


                                                            
-------------------|-------------------|-------------------|
-------------------|-------------------|-------------------|
-------------------|-------------------|-------------------|
--0----------------|--3----------------|--5----------------|


                                                    
----------------------|----------------------------|
----------------------|--9--9--9--9--9--9--9-7-----|
----------------------|------------------------9-7-|
--7----7----7----7----|----------------------------|


                                                            
-----------------------------|-----------------------------|
-----------------------------|-----------------------------|
--------7----------------5-7-|--------7----------------5-7-|
--0--0------x-x-5-7--7-7-----|--0--0------x-x-5-7--7-7-----|


                                                            
-----------------------------|-----------------------------|
-----------------------------|-----------------------------|
--------7----------------5-7-|--------7----------------5-7-|
--0--0------x-x-5-7--7-7-----|--0--0------x-x-5-7--7-7-----|


                                                        
---------------------------|---------------------------|
---------------------------|---------------------------|
---------------------------|-------------5--5--5--5-5--|
--0--0--0--0-3--3--3--3-3--|--5--5--5--5---------------|


                                                            
-----------------------------|-----------------------------|
-----------------------------|-----------------------------|
--7--7--7--7-------------5h7-|--------7----------------5-7-|
-------------7--7-7--7-7-----|--0--0------x-x-5-7--7-7-----|


                                                            
-----------------------------|-----------------------------|
-----------------------------|-----------------------------|
--------7----------------5-7-|--------7----------------5-7-|
--0--0------x-x-5-7--7-7-----|--0--0------x-x-5-7--7-7-----|


                                                            
-----------------------------|-----------------------------|
-----------------------------|-----------------------------|
--------7----------------5-7-|--------7----------------5-7-|
--0--0------x-x-5-7--7-7-----|--0--0------x-x-5-7--7-7-----|


                                                            
-----------------------------|-----------------------------|
-----------------------------|-----------------------------|
--------7----------------5-7-|--------7----------------5-7-|
--0--0------x-x-5-7--7-7-----|--0--0------x-x-5-7--7-7-----|


                     
-------------------||
-------------------||
-------------------||
--0----------------||		   
AcordesyTabs.com © 2008 Acordes y Tablaturas para guitarra. Tabs and Chords for guitar. Aviso Legal - Contacto
El uso de este sitio está sujeto a la aceptación de los términos y condiciones (21 usuarios online)