tablaturas, partituras y acordes para guitarra
Busca por banda/artista:
 
y/o título de la canción:
A B C D E F G H I J K L M N O P Q R S T U V W X Y Z 0 1 2 3 4 5 6 7 8 9 / Top 100 tabs
Categorías
Usuarios
usuario:
Darse de alta
password:
Artistas más visitados
Publicidad
TOP acordes y tablaturas de Metallica


Frantic
de Metallica
Puntúa este acorde/tab:      
(0.3/5)
Reportar este acorde/tab
  Añadir a tus favoritos
  Imprimir
Submitted by Doug Lynch



Band: Metallica
Album: St. Anger
Song: Frantic




Do this about eight times.


E------------------------------------------------------------------
B------------------------------------------------------------------
G------------------------------------------------------------------
D------------------------------------------------------------------
A---------------------------------2--------------------------------             
E---0-0-0-0-0-0-0-0-0-0-0-0-0-0-0-0--------------------------------             
The next part goes like this.  Just keep strumming and palm muting the bottom E 
-------------------------------------------------------------------
-------------------------------------------------------------------
-------------------------------------------------------------------
-------------------------------------------------------------------
-------------------------------------------------------------------
-14-12-0-0-0-0-13-0-0-0-0-14-12-0-0-0-0-13--------------------------------------
Then cut off the distortion and do this with a lot of vibrato.
----------------------------------------------------------------------
----------------------------------------------------------------------
----------------------------------------------------------------------
--------------------------------------------------------------------
-------------------------------------------------------------------------
14 -14-12-0-1313^^^^^-----------------------------------------------------------
I'm not exactly sure how this part goes, but I think it's something like this du
-------------------------------------------------------------------------
------------------------------------------------------------------------
---------------------------------------------------------------------------
7/4-------------7/4------------------------------------------------------------ 
5/2-------------5/2---------------------------------------------------------
----0-0-0-0-0-0-----0-0-0-0-0-0-------------------------------------------------
Then do this after you did the part before this a few times palm muted.
------------------------------------------------------------------------
----------------------------------------------------------------------
----------------------------------------------------------------------
-9-9-9-9--7-7-7-7----------------------------------------------------------
-7-7-7-7--5-5-5-5---------------------------------------------------------- 
----------------------------------------------------------------------
Then go back to the first part of the verse


I don't know the other part at the end, but everything else I've covered.
		   
AcordesyTabs.com © 2008 Acordes y Tablaturas para guitarra. Tabs and Chords for guitar. Aviso Legal - Contacto
El uso de este sitio está sujeto a la aceptación de los términos y condiciones (31 usuarios online)