tablaturas, partituras y acordes para guitarra
Busca por banda/artista:
 
y/o título de la canción:
A B C D E F G H I J K L M N O P Q R S T U V W X Y Z 0 1 2 3 4 5 6 7 8 9 / Top 100 tabs
Categorías
Usuarios
usuario:
Darse de alta
password:
Artistas más visitados
Publicidad
TOP acordes y tablaturas de Metallica


Slither
de Metallica
Puntúa este acorde/tab:      
(0.4/5)
Reportar este acorde/tab
  Añadir a tus favoritos
  Imprimir
Intro:
      
eb|-----------|---------|
Bb|-----------|---------|
Gb|-----0-----|---------|
Db|---2-----4x|-8-7-5-2-|
Ab|-2-----1---|-8-7-5-2-|
Eb|-0---------|-6-5-3-0-|

Verso:

eb|---------------|-------------------|
Bb|---------------|-------------------|
Gb|---------------|-------------------|
Db|-22-5-2-7979---|-22-5-2-87-5-------|
Ab|-22-5-2-7979-2x|-22-5-2-87-5-------|
Eb|-00-3-0-5757---|-00-3-0-65-3-------|

Pré-Refrão:

e|-----------------|
B|-----------------|
G|-----------------|
D|-333/2/333-------|
A|-333/2/333-------|
E|-111/0/111-------|


Refrão:
#12x
eb|-------------------------------------------|
Bb|-------------------------------------------|
Gb|---------------776-555555------------------|
Db|-998-7#-776-5#-776-555555-777777xx7xx7xx---|
Ab|-998-7#-776-5#-554-333333-777777xx7xx7xx---|
Eb|-776-5#-554-3#------------555555xx5xx5xx---|

outro:

eb|-------------------|
Bb|-------------------|
Gb|-----0-2/3/0-----|
Db|---2-----------2---|
Ab|-2-----------------|
Eb|-0-----------------|
		   
AcordesyTabs.com © 2008 Acordes y Tablaturas para guitarra. Tabs and Chords for guitar. Aviso Legal - Contacto
El uso de este sitio está sujeto a la aceptación de los términos y condiciones (33 usuarios online)