tablaturas, partituras y acordes para guitarra
Busca por banda/artista:
 
y/o título de la canción:
A B C D E F G H I J K L M N O P Q R S T U V W X Y Z 0 1 2 3 4 5 6 7 8 9 / Top 100 tabs
Categorías
Usuarios
usuario:
Darse de alta
password:
Artistas más visitados
Publicidad
TOP acordes y tablaturas de Mr. big


Estás en: Inicio > Letra M > Acordes y tablaturas de Mr. big > Take cover
Take cover
de Mr. big
Puntúa este acorde/tab:      
(0.6/5)
Reportar este acorde/tab
  Añadir a tus favoritos
  Imprimir
Riff 1a

e|---------------------------------
B|---/12---14---9------5--4--------
G|----------------------------6--4-
D|---------------------------------
A|---------------------------------
E|---------------------------------

riff 1b
e|---------------------------------
B|---/12---14---9------5-----------
G|---------------------------------
D|---------------------------------
A|---------------------------------
E|---------------------------------
riff 1 c
e|--------------------------------------------
B|---/12---14---9-----------------------------
G|--------------------------------------------
D|-------------------------------------9-9h11-
A|------------------------------7-9-11--------
E|--------------------0-2-4-7-9---------------

riff 2
e|--------------------------------
B|--------------------------------
G|--9-----9--11p9-----------------
D|------11---------11-------------
A|--------------------------------
E|--------------------------------

intro 

riff 1a 1x 
riff 1b 1x

riff 2  nX

verso 1
riff 2 nx

refrão 1
riff 1a 1x
riff 1c 1x

verso 2
riff 2 nx

refrão 2
riff 1a 1x
riff 1c 1x

solo ??????

refrão 3

riff 1a 1x 
riff 1b 1x
riff 1a 1x 
riff 1b 1x

words in my mouth
someone told me to say
they go unspoken
my mind gets the way
i hold my tongue
save my, save my soul
true to my self
and stay gold

sometimes you got pull the plug
somewhere a little place to crawl
love me for who i am
it doesn't have to be this hard
for an ordinary man 

I wanna take cover, take cover
from you, wake me when it's over
take cover , i wanna take cover 
from you

sold all my dreams 
watched then all disappear
i've spilled my blood
no one seems to carr

sometimes you got pull the plug
somewhere a little place to crawl
love me for who i am
how low do I have to go 
to make your understand

I wanna take cover, take cover
from you, wake me when it's over
take cover , i wanna take cover 
from you

solo

I wanna take cover, take cover
from you, wake me when it's over
take cover , i wanna take cover 
from you		   
AcordesyTabs.com © 2008 Acordes y Tablaturas para guitarra. Tabs and Chords for guitar. Aviso Legal - Contacto
El uso de este sitio está sujeto a la aceptación de los términos y condiciones (10 usuarios online)