tablaturas, partituras y acordes para guitarra
Busca por banda/artista:
 
y/o título de la canción:
A B C D E F G H I J K L M N O P Q R S T U V W X Y Z 0 1 2 3 4 5 6 7 8 9 / Top 100 tabs
Categorías
Usuarios
usuario:
Darse de alta
password:
Artistas más visitados
Publicidad
TOP acordes y tablaturas de 3 Doors Down


Estás en: Inicio > Letra 3 > Acordes y tablaturas de 3 Doors Down > Dangerous Game
Dangerous Game
de 3 Doors Down
Puntúa este acorde/tab:      
(0.3/5)
Reportar este acorde/tab
  Añadir a tus favoritos
  Imprimir
hey...this is my first tab...and maybe last...anywayz..i was looking at
the list of tabs for 3 doors down but saw none for dangerous game...
it's a pretty good song...(i like the intro...) anywayz..gl hf

plz mail me for corrections..cause i know i have mistakes somewhere....
kl2forever@hotmail.com

-Intro-

(clean)
e|-5----------------------|-----------------------|-0-5-3--3/5--8-8-8-8/10-8---|
B|-5----------------------|-----------------------|-------------8-8-8-8----8---|
G|-5----5p4-----------4---|-----------------------|----------------------------|
D|-7-5------5---5-5h7---5-|------------------2--5-|----------------------------|
A|-7----------7-----------|-----3-3h5-5-3--5------|----------------------------|
E|-5----------------------|-3-5-------------------|----------------------------|

(clean)
e|---8-----8-----8-|-7h8p7---------------|------------------------------------0-
B|-----8-8---8-8---|-------10-8-8/10-10~-|--------------------------------------
G|-----------------|---------------------|------4---------5-----4----5-4--4/5--5
D|-----------------|---------------------|--5h7---5---5h7---5h7---5-------------
A|-----------------|---------------------|--------------------------------------
E|-----------------|---------------------|--------------------------------------

Verse
Gtr.1 (Clean)
e|-----------------|---------------------|-|
B|-----------------|--------------3------|-|
G|-2---------------|-----0---------------|-|
D|-2---------------|---2--------4--------|-|
A|-0---------------|-3--------5----------|-|
E|-----------------|---------------------|-|

(Distortion)
Part 1:
      * *                * *                * *                * *      
e|------------------|------------------|------------------|------------------|
B|------------------|------------------|------------------|------------------|
G|----------7----7--|-5--5-5---7----7--|----------7----7--|-5--5-5---7----7--|
D|-7--7-7---7----7--|-5--5-5---7----7--|-7--7-7---7----7--|-5--5-5---7----7--|
A|-7--7-7---5----5--|-3--3-3---5----5--|-7--7-7---5----5--|-3--3-3---5----5--|
E|-5--5-5-----------|------------------|-5--5-5-----------|------------------|

      * *                * *                
e|------------------|------------------|---------------------|
B|------------------|------------------|---------------------|
G|----------7----7--|-5--5-5---7----7--|---------------------|
D|-7--7-7---7----7--|-5--5-5---7----7--|-7-------------------|
A|-7--7-7---5----5--|-3--3-3---5----5--|-7-let ring----------|
E|-5--5-5-----------|------------------|-5-------------------|

then Part 2:

      * *                        * *                        * *
e|--------------------------|--------------------------|------------------------
B|--------------------------|--------------------------|------------------------
G|--------------------------|--------------------------|------------------------
D|-7--7-7--5--x-x-x-x-x-x-x-|-7--7-7--5--x-x-x-x-x-x-x-|-7--7-7--5--x-x-x-x-x-x-
A|-7--7-7--5--x-x-x-x-x-x-x-|-7--7-7--5--x-x-x-x-x-x-x-|-7--7-7--5--x-x-x-x-x-x-
E|-5--5-5--3--x-x-x-x-x-x-x-|-5--5-5--3--x-x-x-x-x-x-x-|-5--5-5--3--x-x-x-x-x-x-

      * *                        * *                        * *
e|--------------------------|--------------------------|------------------------
B|--------------------------|--------------------------|------------------------
G|--------------------------|--------------------------|------------------------
D|-7--7-7--5--x-x-x-x-x-x-x-|-7--7-7--5--x-x-x-x-x-x-x-|-7--7-7--5--x-x-x-x-x-x-
A|-7--7-7--5--x-x-x-x-x-x-x-|-7--7-7--5--x-x-x-x-x-x-x-|-7--7-7--5--x-x-x-x-x-x-
E|-5--5-5--3--x-x-x-x-x-x-x-|-5--5-5--3--x-x-x-x-x-x-x-|-5--5-5--3--x-x-x-x-x-x-

sorry..that's about it...i really couldn't figure the second guitar parts...
also..the solo...and another part...
but remember ...

be content...

"don't worry about today...because it's already tommorrow in austrailia"
or unless your in austrailia...
"don't worry about today...because ..piss off...
cya

		   
AcordesyTabs.com © 2008 Acordes y Tablaturas para guitarra. Tabs and Chords for guitar. Aviso Legal - Contacto
El uso de este sitio está sujeto a la aceptación de los términos y condiciones (31 usuarios online)