tablaturas, partituras y acordes para guitarra
Busca por banda/artista:
 
y/o título de la canción:
A B C D E F G H I J K L M N O P Q R S T U V W X Y Z 0 1 2 3 4 5 6 7 8 9 / Top 100 tabs
Categorías
Usuarios
usuario:
Darse de alta
password:
Artistas más visitados
Publicidad
TOP acordes y tablaturas de Metallica


Estás en: Inicio > Letra M > Acordes y tablaturas de Metallica > Guitar Solo Live In Texas
Guitar Solo Live In Texas
de Metallica
Puntúa este acorde/tab:      
(0.1/5)
Reportar este acorde/tab
  Añadir a tus favoritos
  Imprimir
Band:Metallica
Song:Guitar Solo By Kirk Hammett (Live In Texas)
Album:Cunnig Stunts


Intro (whit distortion)
eb1-----------------------------------------------------------5~~--------5~~----
Bb1-------------------5~~-----------5~~-----------------------5~~--------5~~----
Gb1--------------5~~----------------------7~~5~~7~~-----------5~~--------5~~7~~~
Db1--7~~~7~~-------------7~~~-------------------------------------7~~~----------
Ab1-----------------------------------------------------------------------------
Eb1-----------------------------------------------------------------------------


Guitar Riff
eb1-----------------------------------------------------------------------------
Bb1-------------5~~-------------------------------------------------------------
Gb1-------5~~-------------5~~~---------------------------7-5--------------------
Db1--7~~-----------7~~~---------5~~~---------------------7-5-----------------/7-
Ab1---------------------------------------------2~~----------------2~~----------
Eb1----------------------------------------3~~--------5~~-----3~~------5~~------


eb1-----------------------8h9p8h9p8------------------------------------------1
Bb1---------------------------------------------------------------------------1
Gb1--------------------------------------------------------------------9~~----1
Db1----------------------------------------------------------6~~9~~-----------1
Ab1--------2~~----------------------------2~~---------7~~---------------------1
Eb1--3~~--------5~~------------------3~~-------0--7~~---------------0--------—1


eb1----12-----3—3h5p3p2---12------2-2-3-0----12------12-------7-------12--------
Bb1-------12-----0-----------12-----0------------12------12-------7-------12----
Gb1--------------------------------------------------------------------------12-
Db1-----------------------------------------------------------------------------
Ab1-----------------------------------------------------------------------------
Eb1—0----------------------0----------------0------0-------0--------0-----------

Clean
eb1--------------------------------------------------------1
Bb1--------------------------------------------------------1
Gb1---------0--------0--------0----------------------------1
Db1-------4--------5--------7--------0--------0--------0---1
Ab1----2---------3-------5--------4--------2---------------1
Eb1—0--------0--------0--------5--------3---------5--------1


Hey men this solo is correct only practic

All coment to sosomadark@hotmail.com

By Carlos Salazar (sama)
		   
AcordesyTabs.com © 2008 Acordes y Tablaturas para guitarra. Tabs and Chords for guitar. Aviso Legal - Contacto
El uso de este sitio está sujeto a la aceptación de los términos y condiciones (34 usuarios online)