tablaturas, partituras y acordes para guitarra
Busca por banda/artista:
 
y/o título de la canción:
A B C D E F G H I J K L M N O P Q R S T U V W X Y Z 0 1 2 3 4 5 6 7 8 9 / Top 100 tabs
Categorías
Usuarios
usuario:
Darse de alta
password:
Artistas más visitados
Publicidad
TOP acordes y tablaturas de Zwan


Lyric
de Zwan
Puntúa este acorde/tab:      
(0.3/5)
Reportar este acorde/tab
  Añadir a tus favoritos
  Imprimir
For 3 Guitars

G1 E-A-D-G-B-E
G2 E-A-D-G-B-E
G3 D-A-D-G-B-E

Intro

G1
4=Meter
4
1 2 3 4
E---------0-------|-----------------|---------5-------|---------3-2-0---|
B-----3-----3---3-|-----3-------3---|-----3-----3---3-|-----3---------3-|
G---2---2-----0---|---0---0---0---0-|---0---0-----0---|---0---0---------|
D-0---------------|-2-------4-------|-5---------------|-5---------------|
A-----------------|-----------------|-----------------|-----------------|
E-----------------|-----------------|-----------------|-----------------|
G3 | | | |
E-----------------|-----------------|-----------------|-----------------|
B-----------------|-----------------|-----------------|---------------33|
G-----------------|-----------------|-----------------|---------------22|
D-----------------|-----------------|-----------------|---------------00|
A-----------------|-----------------|-----------------|---------------00|
D-----------------|-----------------|-----------------|---------------00|

G2
1 2 3 4
E-----------------|-----------------|-----------------|---------3-2-0---|
B-----------------|-----------------|-----------------|---------------3-|
G-----------------|-----------------|-----------------|-----------------|
D-----------------|-----------------|-----------------|-----------------|
A-----------------|-----------------|-----------------|-----------------|
E-----------------|-----------------|-----------------|-----------------|

G1
5 6 7 8
E---------0-------|-----------------|---------5-------|---------3-2-0---|
B-----3-----3---3-|-----3-------3---|-----3-----3---3-|-----3---------3-|
G---2---2-----0---|---0---0---0---0-|---0---0-----0---|---0---0---------|
D-0---------------|-2-------4-------|-5---------------|-5---------------|
A-----------------|-----------------|-----------------|-----------------|
E-----------------|-----------------|-----------------|-----------------|
G3 Let fade | | | |
E-----------------|-----------------|-----------------|-----------------|
B-3---------------|-----------------|-----------------|-----------------|
G-2---------------|-----------------|-----------------|-----------------|
D-0---------------|-----------------|-----------------|-----------------|
A-0---------------|-----------------|-----------------|-----------------|
D-0---------------|-----------------|-----------------|-----------------|

G2 
5 6 7 
E-0-2-------0-2---|-0-2-----2~~-----|-3-5-7-10-12-------10-|
B-----3~~-------3-|-----3~~-----3-0-|-------------10-12----|
G-----------------|-----------------|----------------------|
D-----------------|-----------------|----------------------|
A-----------------|-----------------|----------------------|
E-----------------|-----------------|----------------------|

G2
8 
E-------12-------10-------|
B-10-12----10-12----10-12-|
G-------------------------|
D-------------------------|
A-------------------------|
D-------------------------|

Verse 1




G1+2
9 10 11 12 
E---------0-------|-----------------|---------5-------|---------3-2-0---|
B-----3-----3---3-|-----3-------3---|-----3-----3---3-|-----3---------3-|
G---2---2-----0---|---0---0---0---0-|---0---0-----0---|---0---0---------|
D-0---------------|-2-------4-------|-5---------------|-5---------------|
A-----------------|-----------------|-----------------|-----------------|
E-----------------|-----------------|-----------------|-----------------|

13 14 15 16 
E---------0-------|-----------------|---------5-------|---------3-2-0---|
B-----3-----3---3-|-----3-------3---|-----3-----3---3-|-----3---------3-|
G---2---2-----0---|---0---0---0---0-|---0---0-----0---|---0---0---------|
D-0---------------|-2-------4-------|-5---------------|-5---------------|
A-----------------|-----------------|-----------------|-----------------|
E-----------------|-----------------|-----------------|-----------------|

Pre Chorus
G1
17 18 19 20
E-5-------5-------|-5-------5-------|-5-------2-------|-5-------2-------|
B---3---3---3---3-|---3---3---3---3-|---3---3---3---3-|---3---3---3---3-|
G-----0-------0---|-----0-------0---|-----4-------4---|-----4-------4---|
D-----------------|-----------------|-----------------|-----------------|
A-----------------|-----------------|-----------------|-----------------|
E-----------------|-----------------|-----------------|-----------------|
G2 | | | |
E---------3-------|---------3-------|---------2-------|---------2-------|
B-----3-----3---3-|-----3-----3---3-|-----------2---2-|-----------2---2-|
G-------0-----0---|-------0-----0---|-----4-------4---|-----4-------4---|
D---0-------------|---0-------------|---4---4---------|---4---4---------|
A-----------------|-----------------|-2---------------|-2---------------|
E-3---------------|-3---------------|-----------------|-----------------|

G1 Change in Meter=2 
21 22 23 24 4 
E-5-------5-------|-5-------5-------|-5-------2-------|-5-------|
B---3---3---3---3-|---3---3---3---3-|---3---3---3---3-|---3---3-|
G-----0-------0---|-----0-------0---|-----4-------4---|-----4---|
D-----------------|-----------------|-----------------|---------|
A-----------------|-----------------|-----------------|---------|
E-----------------|-----------------|-----------------|---------|
G2 | | | |
E---------3-------|---------3-------|---------2-------|---------|
B-----3-----3---3-|-----3-----3---3-|-----------2---2-|---------|
G-------0-----0---|-------0-----0---|-----4-------4---|-----4---|
D---0-------------|---0-------------|---4---4---------|---4---4-|
A-----------------|-----------------|-2---------------|-2-------|
E-3---------------|-3---------------|-----------------|---------|

G1 Strum chords through rest of prechorus
25 26 27 28
E-0---------------|-3---------------|-2---------------|-0---------------|
B-2---------------|-3---------------|-2---------------|-0---------------|
G-2---------------|-0---------------|-4---------------|-0---------------|
D-2---------------|-0---------------|-4---------------|-2---------------|
A-0---------------|-x---------------|-2---------------|-2---------------|
E-----------------|-3---------------|-----------------|-0---------------|
G3 Hit Chord once | | | |
E-----------------|-----------------|-----------------|-----------------|
B-----------------|-----------------|-----------------|-----------------|
G-2---------------|-----------------|-4---------------|-----------------|
D-2---------------|-5---------------|-4---------------|-2---------------|
A-0---------------|-5---------------|-2---------------|-2---------------|
D-----------------|-5---------------|-----------------|-2---------------|

G1 
29 30 31 
E-3---------------|-2---------------|-0---------------|
B-3---------------|-2---------------|-2---------------|
G-0---------------|-4---------------|-2---------------|
D-0---------------|-4---------------|-2---------------|
A-x---------------|-2---------------|-0---------------|
E-3---------------|-----------------|-----------------|
G3 | | |
E-----------------|-----------------|-----------------|
B-----------------|-----------------|-----------------|
G-----------------|-4---------------|-2---------------|
D-5---------------|-4---------------|-2---------------|
A-5---------------|-2---------------|-0---------------|
D-5---------------|-----------------|-----------------|

Chorus 1
No Guitar (if necessary a D-G progression is the implied chord structure)

Post Chorus
G1 Strum chords through Post chorus
40 41 42 43
E-0---------------|-3---------------|-2---------------|-0---------------|
B-2---------------|-3---------------|-2---------------|-0---------------|
G-2---------------|-0---------------|-4---------------|-0---------------|
D-2---------------|-0---------------|-4---------------|-2---------------|
A-0---------------|-x---------------|-2---------------|-2---------------|
E-----------------|-3---------------|-----------------|-0---------------|
G3 Hit chord once | | | |
E-----------------|-----------------|-----------------|-----------------|
B-----------------|-----------------|-----------------|-----------------|
G-2---------------|-----------------|-4---------------|-----------------|
D-2---------------|-5---------------|-4---------------|-2---------------|
A-0---------------|-5---------------|-2---------------|-2---------------|
D-----------------|-5---------------|-----------------|-2---------------|

G1 
44 45 
E-0-2-----0-2-----|-0-2-----0-2-----|-0-2-----0-2-----|-0-2-----0-2-----|
B-----3-------3---|-----3-------3---|-----3-------3---|-----3-------3---|
G-----------------|-----------------|-----------------|-----------------|
D-----------------|-----------------|-----------------|-----------------|
A-----------------|-----------------|-----------------|-----------------|
E-----------------|-----------------|-----------------|-----------------|
G3 Strum on this | | | |
E-----------------|-----------------|-----------------|-----------------|
B-----------------|-----------------|-----------------|-----------------|
G-2---------------|-2---------------|-7---------------|-7---------------|
D-0---------------|-0---------------|-5---------------|-5---------------|
A-0---------------|-0---------------|-5---------------|-5---------------|
D-0---------------|-0---------------|-5---------------|-5---------------|

Verse 2 Same

Pre Chorus 2 Same

Pre Chorus 2 Solo -

G3 | | | |
E-----------------|-----------------|-----------------|-----------------|
B-----------------|-----------------|-----------------|-----------------|
G-----------------|-----------------|-----4---4-6-6---|-7---------------|
D-----------------|-----------------|-----------------|---------5-4-----|
A-----------------|-----------------|-----------------|-----------------|
D-----------------|-----------------|-----------------|-----------------|

G3 | | | |
E-----------------|-----------------|-----------5-5---|-7~~~------------|
B-----------------|-8---7-----------|-----8---8-------|-----------------|
G-7-------7-9-9---|---------9-7---9-|-----------------|-----------------|
D-----------------|-----------------|-----------------|-----------------|
A-----------------|-----------------|-----------------|-----------------|
D-----------------|-----------------|-----------------|-----------------|

G3 | 1 2 3 4 | 1 2 3 + 4 | 1 2 3 + 4 |
E-7-------7-9-9---|10~~~------------|10------10-12-12---|14------12-------|
B-----------------|-----------------|-------------------|----------15-----|
G-----------------|-----------------|-------------------|-----------------|
D-----------------|-----------------|-------------------|-----------------|
A-----------------|-----------------|-------------------|-----------------|
D-----------------|-----------------|-------------------|-----------------|

G3 | / -3-  3 + 4 + | | |
E-----------------|----------------------|-----------------|-----------------|
B-14~~------------|-15-14-12-14-15-14-12-|-----------------|-----------------|
G-----------------|----------------------|14~~-------------|-----------------|
D-----------------|----------------------|-----------------|-----------------|
A-----------------|----------------------|-----------------|-----------------|
D-----------------|----------------------|-----------------|-----------------|

Final Chorus same, with guitar 1 playing opening riff, and g2 playing D – G progression		   
AcordesyTabs.com © 2008 Acordes y Tablaturas para guitarra. Tabs and Chords for guitar. Aviso Legal - Contacto
El uso de este sitio está sujeto a la aceptación de los términos y condiciones (30 usuarios online)