tablaturas, partituras y acordes para guitarra
Busca por banda/artista:
 
y/o título de la canción:
A B C D E F G H I J K L M N O P Q R S T U V W X Y Z 0 1 2 3 4 5 6 7 8 9 / Top 100 tabs
Categorías
Usuarios
usuario:
Darse de alta
password:
Artistas más visitados
Publicidad
TOP acordes y tablaturas de Yngwie malmsteen


Estás en: Inicio > Letra Y > Acordes y tablaturas de Yngwie malmsteen > Carry on wayward son
Carry on wayward son
de Yngwie malmsteen
Puntúa este acorde/tab:      
(0.7/5)
Reportar este acorde/tab
  Añadir a tus favoritos
  Imprimir
----------------------------------------------------------------------------- 
----------------------------------------------------------------------------- 
----------------------------------------------------------------------------- 
--------------------------------------5-------------------------------------- 
------------3--3-----------5--5--5/7-----7--5-----5--------------------3--3-- 
---5--3--5--------5--3--5----------------------8-----3--2--2--5--3--5-------- 
' 
 
----------------------------------------------------------------------------- 
-------------------------------------------------------------8--8------------ 
-------------------------------------------------------------7--7------------ 
------------------------5---------------------------------------------------5 
-------------5--5--5/7-----7--5-----5--------5---------------------------5--- 
--5--3----5----------------------8-----3--3-----2--2--0--0----------5h7------ 
 
 
----------------------------------------------------------------------------- 
------------------10---8--------------------------8---8---------------------- 
-------------------9---7--------------------------7---7---------------------- 
-------------------------------------------------------------------5--------- 
--5h7-----------------------------------------------------------5-----5h7---- 
--------0--0--------------------x--x-----0--0--------------5h7--------------- 
 
 
----------------------------------------------------------------------------- 
----------10--8-------------------------------------------------------------- 
-----------9--7-------------------------------------------------------------- 
--------------------xps----------------------------------------------------- 
--------------------xps----------------------------------------------------- 
--0--0----------------------------------------------------------------------- 
 
Play Main Riff with lead below 
 
 
-12-11-10-----10------------------------------------8--8-8--5-----------5---- 
----------13-----13-13--13-13-13--13-13--13--13--13-----------8-5----5-----10 
------------------------------------------------------------------8---------- 
----------------------------------------------------------------------------- 
----------------------------------------------------------------------------- 
----------------------------------------------------------------------------- 
 
 
--------------------------5----------5--------------------------------------- 
-8~-----------------5-7-8---8-7-5------7h8--8-7-5---7-5---------------------- 
------7--7-7p5--7-8---------------7---------------7-----7--7-7-7p5-5~-------- 
----------------------------------------------------------------------------- 
----------------------------------------------------------------------------- 
----------------------------------------------------------------------------- 
 
 
--------------------------------------15h17p15-----------12-12-12------------ 
-15h17-17-15-17-17-15-17-17-17-15h17-----------17-15--------------15p12------ 
-----------------------------------------------------16-----------------14--- 
----------------------------------------------------------------------------- 
----------------------------------------------------------------------------- 
----------------------------------------------------------------------------- 
 
 
----------------------------------------------------------------------------- 
--------------------------------------------------------------12-14-15------- 
-14p12-14p12-14--12---12---12--16-16-14-16-12--12-14-15-14-15----------14---- 
----------------------------------------------------------------------------- 
----------------------------------------------------------------------------- 
----------------------------------------------------------------------------- 
 
 
----------------------------------------------------------------------------- 
-12-------------------------------------------------------------------------- 
----15-14-12----14-14-12----14-----------------------2--2--2~~~~------------- 
-------------14----------14-----12------------------------------------------- 
-----------------------------------14-13-12-10-10---------------------------- 
----------------------------------------------------------------------------- 
 
 
--------------------------19-19-19----19-19-19----17--17--------------------- 
-5--5--5--5---5--5-5---5-----------------------15---------------------------- 
----------------------------------------------------------12~---------------- 
----------------------------------------------------------------------------- 
----------------------------------------------------------------------------- 
----------------------------------------------------------------------------- 
 
 
---15--15-------------------------------------------------------------------- 
-----------15--15p1312--13~~~~~~~~~~~~~~~----------------------------------- 
----------------------------------------------------------------------------- 
----------------------------------------------------------------------------- 
----------------------------------------------------------------------------- 
----------------------------------------------------------------------------- 
 
 
Once I rose above the noise and confusion... 
 
-------5--------0-------------0----------------3------------5-------0-------- 
-----5------------1--------------1----------3------------5-------------1----- 
---2----------0------------2-------------0------------2----------0----------- 
----------------------------------------------------------------------------- 
-0-------------------------------------------------0------------------------- 
-----------3------------1-------------3------------------------3------------- 
 
 
------0----------------3--------------------------------------0-------------- 
---------1----------3----------------6-------------3---------3--3------------ 
---2-------------0----------------7-------------5----------3-------3--------- 
-------------------------------7-------------5------------------------------- 
----------------------------5-------------3-------------1-------------3------ 
1------------3--------------------------------------------------------------- 
 
 
------------------------------------------------5---------0------------0----- 
--------6--------3--------0-1--0---0----------5--------------1-----------1--- 
------7--------5-------0---------0---0------2----------0------------2-------- 
----7--------5--------------------------------------------------------------- 
--5--------3------------------------------0---------------------------------- 
---------------------3-------------------------------3-----------1----------- 
 
 
-----------3---------------5---------0------------0--------------3----------- 
--------3---------------5---------------1------------1--------3----------5--- 
-----0---------------2------------0------------2-----------0-----------7----- 
---------------------------------------------------------------------7------- 
-----------------0-------------------------------------------------5--------- 
--3----------------------------3------------1------------3------------------- 
 
 
----------------------------------------------------------------------------- 
-------3---------0----------------6---------3---------0-1--0---0------------- 
-----5---------3---3------------7---------5--------0---------0---0----------- 
---5---------3-------3--------7---------5------------------------------------ 
-3---------1------------3---5---------3-------------------------------------- 
------------------------------------------------3---------------------------- 
 
 
Carry On my wayward son... 
----------------------------------------------------------------------------- 
----------------------------------------------------------------------------- 
-----------0---------------0---0--------------5------0---------------0---0--- 
---------5-0------7-----5--0---0--------------5----5-0------7-----5--0---0--- 
-------3--------7-----3------------3--------7----3--------7-----3------------ 
-5--57--------5-----3--------------1------5-------------5-----3-------------- 
 
 
----------------------------------------------------------------------------- 
-12----12-------------------------------------------------------------------- 
-12----12---------------5-------0----------------0------0-------------------- 
-12----12---------------5----5--0------7------5--0------0-------------------- 
-----------------5--5-7----3---------7------5-------------------3------------ 
-----------------------------------5------3---------------------1------------ 
 
 
----------------------------------------------------------------------------- 
---10------------------------------------------------------------------------ 
---10------------------------------------------------------------------------ 
---10-----2-------------------------------------5---------------------------- 
-------------3------------3-3---------5-5--5/7-----7-5----5-------5---------- 
-------------------5-3-5-------5-3--5------------------8----3--3-----2--2---- 
 
 
----------------------------------------------------------------------------- 
----------------------------------------------------------------------------- 
----------------------------------------------------------------------------- 
-----------------------------5----------------------------------------------- 
--------3-3---------5-5-5/7-----7-5----5--------5---------3------------------ 
-5-3-5-------5-3-5------------------8-----3--3-----2--2---1------------------ 
 
 
----------------------------------------------------------------------------- 
----------------------------------------------------------------------------- 
----------------------------------------------------------------------------- 
-----7--5----------------------------7----5/5-------------------------------- 
-----------7--5-------3-5--5----7----5----3/3-------------------------------- 
--5--------------8--5------3----5-------------------------------------------- 
 
Lead 
 
----------------------------------------------------------------------------- 
--------7-7--7~--7--7p5---------8-8--8-8-8~--8--8-8-5-------------5--------- 
-5------------------------5~--------------------------8---7-8-7h8---8-7-5--5 
-------------------------7--------------------------------------------------- 
----------------------------------------------------------------------------- 
----------------------------------------------------------------------------- 
 
 
----------------12-13-12-10-------------------------------------------------- 
---5------------------------13-12-10-9---------10-9------10-9---------------- 
-7----7~~------------------------------10-9-10------10-9------10-9-7--------- 
---------------------------------------------------------------------10-9-7-- 
----------------------------------------------------------------------------- 
----------------------------------------------------------------------------- 
 
 
----------------------------------------------------------------------------- 
----------------------------------------------------------------------------- 
-9-10-9--9-7-9-10-9-7-----7-------------------------------------------------- 
-----------------------10---10-9-7-10-9-7-6-9-7-6---6-7-6-------------------- 
--------------------------------------------------8-------7-8-8p7p5---------- 
--------------------------------------------------------------------7p5p4--0- 
 
 
---------------21~~~~~~~~-16h19p16----13h16p13----10h13p10----13p12p10------- 
--15~w/bar-------------------------18----------15----------12---------------- 
----------------------------------------------------------------------------- 
----------------------------------------------------------------------------- 
----------------------------------------------------------------------------- 
----------------------------------------------------------------------------- 
 
 
-----------------13-16-------10-13------------------------------------------- 
-13p12p10----15-----------12--------12-12p10p9-9-10-12---------------9-12---- 
----------16-----------13------------------------------10-9--------9--------- 
------------------------------------------------------------12-9-9----------- 
----------------------------------------------------------------------------- 
----------------------------------------------------------------------------- 
 
 
----------------------------------------------------------------------------- 
-12-12p10p9--12p10p9-10-9----9----------------------------------------------- 
--------------------------10---10-9-7h9p7------------------------------------ 
------------------------------------------10p9h10p9p7p6h7h9p7p6-------------- 
----------------------------------------------------------------8p7-7-7-7---- 
----------------------------------------------------------------------------- 
 
 
-12~----12-11-10-------------------------------------------------17~--------- 
-----------------13-12-10----10-12----10-12-10~w/bar--------10--------------- 
--------------------------11-------11---------------------------------------- 
----------------------------------------------------------------------------- 
----------------------------------------------------------------------------- 
----------------------------------------------------------------------------- 
 
 
-------5-----------5--------------------------------------------------------- 
---8~----8-5-----5---8-5--7-5--------------------------------------5--------- 
--------------7---------------8p7--8-7-5---7---5-------------5-7-8---8-7-5-7- 
-----------------------------------------7---7----7p5-7p5-7~----------------- 
----------------------------------------------------------------------------- 
----------------------------------------------------------------------------- 
 
 
---------------16-19----16-19----19-16-19-19-16-19-----19-16-20-19-20-------- 
--5-8-8~~------------18-------18--------------------18----------------------- 
----------------------------------------------------------------------------- 
----------------------------------------------------------------------------- 
----------------------------------------------------------------------------- 
----------------------------------------------------------------------------- 
 
 
--19-17p16------19p17-19-17-19p17-19-20-19h20p19p1716----------------------- 
----------18-17----------------------------------------18-17-17h18p17p15----- 
----------------------------------------------------------------------------- 
----------------------------------------------------------------------------- 
----------------------------------------------------------------------------- 
----------------------------------------------------------------------------- 
 
 
----------------------------------------------------------------------------- 
--/17-17h18p1715-15h17p1513h15p13-1210--12p10p9---------------9h10h12p10p9 
-------------------------------------------------------9h10p9---------------- 
---------------------------------------------------12---------12------------- 
----------------------------------------------------------------------------- 
----------------------------------------------------------------------------- 
 
 
-----------------10--------10-------13-13--12h13p12p10----------------------- 
-9-9-9----12-9----------12----12-12--------------------13p12p10p9------------ 
-------9-------9-----13-------------------------------------------10--------- 
----------------------------------------------------------------------------- 
----------------------------------------------------------------------------- 
----------------------------------------------------------------------------- 
 
 
----------------------------------------------------------------------------- 
-12p10p9-------------------------------------------------------------13~----- 
---------10p9p7--------9h10p9p7---------------------------------------------- 
----------------10p9p7----------10p9p7p6h7h9p7p6----------------------------- 
-------------------------------------------------8p7p5----------------------- 
-------------------------------------------------------7p5p4-----0----------- 
 
 
---------10-----------------10----------------10----------------10-12-13----- 
-~13-13-----13-12-10-12-13-----13-12-10-12-13----13-12-10-12-13-------------- 
----------------------------------------------------------------------------- 
----------------------------------------------------------------------------- 
----------------------------------------------------------------------------- 
----------------------------------------------------------------------------- 
 
 
-12-10----------------------------------------------------------------------- 
-------13-12-10-9------12-10-9----------------------------------------------- 
------------------10-9---------10-9-7-9--9h10p9p7----------7~w/bar----------- 
--------------------------------------------------10p9p7p6------------------- 
----------------------------------------------------------------------------- 
----------------------------------------------------------------------------- 
 
 
---------------------------5------5----------5------------------------------- 
---7--5---5--------------5----8~----5-8----5---8-5-7-----5-5----------------- 
-7------7---5-7---5h7--7----------------7------------7-8-----8-7-5-7-5---5--- 
----------------7------------------------------------------------------7----- 
----------------------------------------------------------------------------- 
----------------------------------------------------------------------------- 
 
 
----------------------------------------------------------------------------- 
----------------------------------------------------------------------------- 
--7-5~--8~------------------------------------------------------------------- 
----------------------------------------------------------------------------- 
----------------------------------------------------------------------------- 
----------------------------------------------------------------------------- 
 
You will always remember nothing equals the splender... 
 
----------------------------------------------0------------------------------ 
---------------------------6-------3--------3---3------------6--------3------ 
-------------------------7-------5--------3-------3--------7--------5-------- 
-----------------------7-------5-------------------------7--------5---------- 
---------------------5-------3----------1-----------3--5--------3------------ 
----------------------------------------------------------------------------- 
 
 
----------------------------------------------------------------------------- 
-------0-1-0---0------------------------------------------------------------- 
----0--------0---0----------------------------------------------------------- 
----------------------------------------------------------------------------- 
----------------------------------------------------------------------------- 
--3-------------------------------------------------------------------------- 
 
                                               =======5x===== 
----------16--16-----13--12h13p12----------10-------------------10-12-13-12- 
-----------------------------------15-15~------13-12-10-12-13---------------- 
----------------------------------------------------------------------------- 
----------------------------------------------------------------------------- 
----------------------------------------------------------------------------- 
--0--0----------------------------------------------------------------------- 
 
 
-10-12-10----10-12h13p12-10--12-10-------10-12-13-12-10---------------------- 
----------13-----------------------13-12----------------13-12-10-9-------9h10 
-----------------------------------------------------------------------9----- 
--------------------------------------------------------------------12------- 
----------------------------------------------------------------------------- 
----------------------------------------------------------------------------- 
 
 
----------------------------------------------------------------------------- 
h12p10p9--------------------------------------------------------------------- 
---------10p9p7h9h10p9p7--------9h10--9p7------------------------------------ 
-------------------------10p9p7-----------10p9p76-----6h7h9p7p6------------- 
---------------------------------------------------8p7-----------8p7--------- 
----------------------------------------------------------------------------- 
 
 
-------------------------------------------------------------------19~~~~---- 
----------------------------------------------------------------------------- 
-------------------7-9-10-9-7------------------------------------------------ 
----9-9-9-9-7-9-10------------10-9-7-6-------6-7-9-7-6----------------------- 
--7------------------------------------8-7-8-----------8-7------------------- 
-----------------------------------------------------------0--0-------------- 
 
 
21-21-21-21-21-21-21-21-19-20-17-20-16-20-19-20-17-20-16-20-19-20-13-17-16--- 
----------------------------------------------------------------------------- 
----------------------------------------------------------------------------- 
----------------------------------------------------------------------------- 
----------------------------------------------------------------------------- 
----------------------------------------------------------------------------- 
 
 
-17-13-17-16-17-10-13-12-13-------------------------------------------------- 
----------------------------9-12-10-12--------------------------------------- 
---------------------------------------7-10-9p7----9-7--------7-------------- 
------------------------------------------------10-----10-9-7---10-9-7-9-10-- 
----------------------------------------------------------------------------- 
----------------------------------------------------------------------------- 
 
 
---------------------------------------------------------------17-17~~~~----- 
----------------------------------------------------------------------------- 
-7-9-10-9-7-9-7----7--------------------------------------------------------- 
----------------10---10-9-7-6-9-7-6-7-6-------------------------------------- 
----------------------------------------8-7-7-7-7-7-7-7---------------------- 
--------------------------------------------------------0-------------------- 
 
 
-13-12-10-------10----------------10-12-13-12-10-12-10----10----------------- 
----------13-12----13-12-10-12-13----------------------13----13-12-10-------- 
----------------------------------------------------------------------------- 
----------------------------------------------------------------------------- 
----------------------------------------------------------------------------- 
----------------------------------------------------------------------------- 
 
 
-------10-12-13-12-10-12-10-------------------------------------------------- 
-12-13----------------------13-12-13-13-12-10-13-12-109-12-9-10-12-13-12-10-9 
----------------------------------------------------------------------------- 
----------------------------------------------------------------------------- 
----------------------------------------------------------------------------- 
----------------------------------------------------------------------------- 
 
 
----------------------------------------------------------------------------- 
-10-9-12-10-9----9-----------9-10-12-10-9------------------------------------ 
--------------10---10-9-9-10--------------10-97-9-10-9-7----7-9-7----------- 
----------------------------------------------------------10-------10-9-7-9-10 
----------------------------------------------------------------------------- 
----------------------------------------------------------------------------- 
 
 
----------------------------------------------------------------------------- 
----------------------------------------------------------------------------- 
--7-7-9-10-9-7--------------------------------------------------------------- 
---------------10-9-7-6-9-7-6-7---------------------------------------------- 
----------------------------------------------------------------------------- 
----------------------------------------------------------------------------- 
h = hammeron                                      w/bar = tremolo with bar 
p = pulloff                                       ps = pick scrape xps 
~ = vibrato                                       letostak@ix.netcom.com 
b = bend 
/ = Slide 
* = Artificial Harmonic 
x = ghost note 
tr = trill		   
AcordesyTabs.com © 2008 Acordes y Tablaturas para guitarra. Tabs and Chords for guitar. Aviso Legal - Contacto
El uso de este sitio está sujeto a la aceptación de los términos y condiciones (31 usuarios online)