tablaturas, partituras y acordes para guitarra
Busca por banda/artista:
 
y/o título de la canción:
A B C D E F G H I J K L M N O P Q R S T U V W X Y Z 0 1 2 3 4 5 6 7 8 9 / Top 100 tabs
Categorías
Usuarios
usuario:
Darse de alta
password:
Artistas más visitados
Publicidad
TOP acordes y tablaturas de Metallica


Estás en: Inicio > Letra M > Acordes y tablaturas de Metallica > Hero Of The Day
Hero Of The Day
de Metallica
Puntúa este acorde/tab:      
(0.3/5)
Reportar este acorde/tab
  Añadir a tus favoritos
  Imprimir
Hero of the Day
mike grant
--------------------------------------------------------------- 
Opening part

e:---------------------------------------------------------------------------|
B:-------------------------------------------------0-----0--------0--------0-|
G:----------------2--------2--------2--------2--------1-----1--------1-------|
D:-------------2--------2--------2--------2--------------------2--------2----|
A:----0-----0--------2--------4--------5-------------------------------------|
E:-2-----2--------------------------------------0----------------------------|

e:---------------------------------------------------------------------------|
B:-------------------------------------------------0-----0--------0--------0-|
G:----------------2--------2--------2--------2--------1-----1--------1-------|
D:-------------2--------2--------2--------2-----2--------------2--------2----|
A:----0-----0--------2--------4--------5-------------------------------------|
E:-2-----2-------------------------------------------------------------------|
e:----------------|
B:-2p0------------|
G:------2--1-/-2--|
D:----------------|
A:----------------|
E:----------------|

Distortion riff

e:----------------------------------------------------------------------|
B:----------------------------------------------------------------------|
G:--------2--------2--------2--------2----------------------------------|
D:-----2--------2--------2--------2--------4-h-6--6--6-----4-h-6--6--6--|
A:--0--------2--------4--------5-----------7---7--7--7-----7---7--7--7--|
E:--------------------------------------0---------------0---------------|

Fast Riff That's all

e:------------------------------------|
B:------------------------------------|
G:------------------------------------|
D:------------------------------------|
A:-----4--4--4--4--4--4--44--5--4--54-|
E:--0--2--2--2--2--2--2--22--3--2--32-|


		   
AcordesyTabs.com © 2008 Acordes y Tablaturas para guitarra. Tabs and Chords for guitar. Aviso Legal - Contacto
El uso de este sitio está sujeto a la aceptación de los términos y condiciones (31 usuarios online)