tablaturas, partituras y acordes para guitarra
Busca por banda/artista:
 
y/o título de la canción:
A B C D E F G H I J K L M N O P Q R S T U V W X Y Z 0 1 2 3 4 5 6 7 8 9 / Top 100 tabs
Categorías
Usuarios
usuario:
Darse de alta
password:
Artistas más visitados
Publicidad
TOP acordes y tablaturas de Misfits


Estás en: Inicio > Letra M > Acordes y tablaturas de Misfits > Lost in space
Lost in space
de Misfits
Puntúa este acorde/tab:      
(0.3/5)
Reportar este acorde/tab
  Añadir a tus favoritos
  Imprimir
Tune Down 1/2 Step

<7> = Naturel Harmonics
           7~ = Vibrato
           7^ = Bend
          Fill1
          ------------------------------------------------------------------------------
          -8-<7>-5-3-2-0----------------------------------------------------------------
          ------------------------------------------------------------------------------
          
          Verse                                           VerseEND
          ---------------------3-3-3-3-3----------------  ------------------------------
          -5-5-5-5-5-5-5-5-5-5-1-1-1-1-1-3-3-3-3-3------  (3)---------------------------
          -3-3-3-3-3-3-3-3-3-3-----------1-1-1-1-1------  (1)---1/11--------------------
          
          Chorus                                     ChorusEND
          -8-8-8-8-8-------------------------------  -8-8-8-8-8-------------------------
          -6-6-6-6-6-8-8-8-8-8-5-5-5-5-5-8-8-8-8-8-  -6-6-6-6-6-8-8-8-8-8---------------
          -----------6-6-6-6-6-3-3-3-3-3-6-6-6-6-6-  -----------6-6-6-6-6---------------
          
          Bridge                             BridgeEND
          ---------------------------------  -------------------------------------------
          -2---(2)-------0-1-0-------------  -2---(2)-------0-1^------------------------
          -0---(0)---0-3-------3-----------  -0---(0)---0-3----------------------------- 
          
          Outro                              OutroEND
          -3-3-3---------------------------  -3-3-3--------X----------------------------
          -1-1-1-3-3-3-5--(5)--------------  -1-1-1-3-3-3--X-----5----------------------
          -------1-1-1-3--(3)--------------  -------1-1-1--X-----3----------------------
          ______________________________________________________________________________
          SongFlow
          
          Fill1 
          Verse   X3 + G X 10
          Fill1
          Verse  X4 
          Verse  X4 + END
          Chorus X3 + END
          Verse  X4 + END
          Chorus X3 + END
          Bridge X3 + END
          Chorus X3 + END + G
          Chorus X3 + END + G
          Outro  X2 + END
          
          Lyrics
          
          Go!
          Of all the things they taught you
          I'm telling you this, son
          All the wars fought before won't compare to this one
          Giant spiders prepare to take over
          
          Here comes another mutant suicide squad
          You blast them out but now you're way off course
          You start to shiver and shake
          I'm calling you, Houston
          
          Am I following all the right leads?
          Or am I about to get lost in space?
          When my time comes
          They'll write my destiny
          Will you take this ride?
          
          All communications lost
          We crashed into the earth
          Too late to see the giant spider monster giving birth
          The future is here, and here is the future
          
          Am I following all the right leads?
          Or am I about to get Lost in Space?
          When my time comes
          They'll write my destiny
          Will you take this ride?
          
          (Voice - Danger, Danger, Will Robinson....Warning, Warning)
          
          Will you take this ride?
          Will you take this ride?
          Will you take this ride?
          
          Am I following all the right leads?
          Or am I about to get Lost in Space?
          When my time comes
          They'll write my destiny
          Will you take this ride?
          
          Will you take this ride with me? (Take this ride, take this ride)
          Whoa (Take this ride, take this ride)
          Me (Take this ride, take this ride)
          Whoa		   
AcordesyTabs.com © 2008 Acordes y Tablaturas para guitarra. Tabs and Chords for guitar. Aviso Legal - Contacto
El uso de este sitio está sujeto a la aceptación de los términos y condiciones (20 usuarios online)