tablaturas, partituras y acordes para guitarra
Busca por banda/artista:
 
y/o título de la canción:
A B C D E F G H I J K L M N O P Q R S T U V W X Y Z 0 1 2 3 4 5 6 7 8 9 / Top 100 tabs
Categorías
Usuarios
usuario:
Darse de alta
password:
Artistas más visitados
Publicidad
TOP acordes y tablaturas de Misfits


Estás en: Inicio > Letra M > Acordes y tablaturas de Misfits > Blacklight
Blacklight
de Misfits
Puntúa este acorde/tab:      
(0.7/5)
Reportar este acorde/tab
  Añadir a tus favoritos
  Imprimir
Tuning: 1/2 step down

INTRO
e|------------------------------------------------------------|
B|------------------------------------------------------------|
G|-----------------5-5-5-5------------------5-5-5-5-----------|
D|--------3-3-3-3--5-5-5-5-7-7-7-7--3-3-3-3-5-5-5-5-----------|
A|--------3-3-3-3--3-3-3-3-7-7-7-7--3-3-3-3-3-3-3-3-----------|
E|--13--1-1-1-1----------5-5-5-5--1-1-1-1----------1/13---|

RIFF
e|----------------------------------------|
B|----------------------------------------|
G|----------------------------------------|
D|--7--7-7-7-7-7-7--5--7--7-7-7-7-7-7--5--|
A|--7--7-7-7-7-7-7--5--7--7-7-7-7-7-7--5--|
E|--5--5-5-5-5-5-5--3--5--5-5-5-5-5-5--3--|
pm     ***********        ***********

CHORUS   First and second time
e|------------------------------------------------------------------|
B|------------------------------------------------------------------|
G|------------------------------------------------------------------|
D|-3-3-3-3/7-7-7-7-3-3-3/7-7-7-7-3-3-3/7-7-7-7-3-3-3/7-7-7-7--|
A|-3-3-3-3/7-7-7-7-3-3-3/7-7-7-7-3-3-3/7-7-7-7-3-3-3/7-7-7-7--|
E|-1-1-1-1/5-5-5-5-1-1-1/5-5-5-5-1-1-1/5-5-5-5-1-1-1/5-5-5-5--|

e|------------------------------|
B|------------------------------|
G|--7-7-7-7-7--7/9-9-9-9-9-9-9--|
D|--7-7-7-7-7--7/9-9-9-9-9-9-9--|
A|--5-5-5-5-5--5/7-7-7-7-7-7-7--|
E|------------------------------|

CHORUS     Third time only
e|------------------------------------------------------------------|
B|------------------------------------------------------------------|
G|------------------------------------------------------------------|
D|--3-3-3-3/7-7-7-7-3-3-3/7-7-7-7-3-3-3/7-7-7-7-3-3-3/5-5-5-5-|
A|--3-3-3-3/7-7-7-7-3-3-3/7-7-7-7-3-3-3/7-7-7-7-3-3-3/5-5-5-5-|
E|--1-1-1-1/5-5-5-5-1-1-1/5-5-5-5-1-1-1/5-5-5-5-1-1-1/3-3-3-3-|

e|------------------------------|
B|------------------------------|
G|--7-7-7-7-7--7/9-9-9-9-9-9-9--|
D|--7-7-7-7-7--7/9-9-9-9-9-9-9--|
A|--5-5-5-5-5--5/7-7-7-7-7-7-7--|
E|------------------------------|

FILL
e|--------------------------|
B|--------------------------|
G|----------5-5-5-5---------|
D|--3-3-3-3-5-5-5-5---------|
A|--3-3-3-3-3-3-3-3---------|
E|--1-1-1-1---------1/13--|

OUTRO
e|------------------------------------------------------|
B|------------------------------------------------------|
G|----------5-5-5-5------------------5-5-5-5------------|
D|-3-3-3-3--5-5-5-5-7-7-7-7--3-3-3-3-5-5-5-5-7:--5--7:--|
A|-3-3-3-3--3-3-3-3-7-7-7-7--3-3-3-3-3-3-3-3-7:--5--7:--|
E|-1-1-1-1----------5-5-5-5--1-1-1-1---------5:--3--5;--|

| /  slide up
|   slide down
| h  hammer-on
| p  pull-off
| ~  vibrato
| +  harmonic
| x  Mute note
| :  Let ring		   
AcordesyTabs.com © 2008 Acordes y Tablaturas para guitarra. Tabs and Chords for guitar. Aviso Legal - Contacto
El uso de este sitio está sujeto a la aceptación de los términos y condiciones (57 usuarios online)