tablaturas, partituras y acordes para guitarra
Busca por banda/artista:
 
y/o título de la canción:
A B C D E F G H I J K L M N O P Q R S T U V W X Y Z 0 1 2 3 4 5 6 7 8 9 / Top 100 tabs
Categorías
Usuarios
usuario:
Darse de alta
password:
Artistas más visitados
Publicidad
TOP acordes y tablaturas de X-piracy


Jelous
de X-piracy
Puntúa este acorde/tab:      
(0.7/5)
Reportar este acorde/tab
  Añadir a tus favoritos
  Imprimir
Drop C 
 
(intro) 
(1st guitar) 
D|---------------------------------| 
A|---------------------------------| 
F|----------------------2-2-2-2-2-2| (play 5x)  
C|--------3-3-3--2-2-2-------------| 
G|-1-1-1---------------------------| 
C|---------------------------------|  
 
(2nd guitar) 
D|---------------------------------------------------------| 
A|---------------------------------------------------------| 
F|-7-7-7-7---9-9-9-9---10-10-10-10-----12-11-10-10-10-10---| (play 2x)  
C|-x-x-x-x---x-x-x-x---x-x-x-x-----------------------------| 
G|-5-5-5-0---7-7-7-0---8-8-8-0-----------------------------| 
C|---------------------------------------------------------|   
 
(1st guitar) 
D|-----------------------------------| 
A|-----------------------------------| 
F|-----------------------------------| (play 4x) 
C|-12-12-12--11-11-11--7-7-7-7-7--3-4| 
G|-12-12-12--11-11-11--7-7-7-7-7--3-4| 
C|-12-12-12--11-11-11--7-7-7-7-7--3-4|  
 
(verse 1) 
(both guitars) 
D|------------------------------| 
A|------------------------------| 
F|------------------------------| 
C|-3--0--3--0--3--0--3--0--8-8-8| (play 8x) 
G|-3--0--3--0--3--0--3--0--8-8-8| 
C|-3--0--3--0--3--0--3--0--8-8-8|  
 
(2nd guitar)  
D|------------------------------------------------------------| 
A|------------------------------------------------------------| 
F|-7-7-7-7-7-7-7-7--9-9-9-9-9-9-9-9---10-10-10-10-10-10-10-10-| (play 2x)  
C|-x-x-x-x-x-x-x-x--x-x-x-x-x-x-x-x---x-x-x-x-----x-x-x-x-----| 
G|-5-5-5-0-5-5-5-0--7-7-7-0-7-7-7-0---8-8-8-0-----8-8-8-0-----| 
C|------------------------------------------------------------|  
  
(at the 3rd time play this)  
D|---------------------------------------------------------------------------------------| 
A|---------------------------------------------------------------------------------------| 
F|-7-7-7-7-7-7-7-7--9-9-9-9-9-9-9-9--10-10-10-10-10-10-10-10--12-12-12-12-12-12-12-12-12-| 
C|-x-x-x-x-x-x-x-x--x-x-x-x-x-x-x-x--x-x-x-x-----x-x-x-x------x-x-x-x-x-x-x-x-x----------| 
G|-5-5-5-0-5-5-5-0--7-7-7-0-7-7-7-0--8-8-8-0-----8-8-8-0------10-10-10-10-10-10-10-10-10-| 
C|---------------------------------------------------------------------------------------|  
 
(Rap part) 
(1st guitar) 
D|-------------------------------------------|           
A|-------------------------------------------|           
F|-------------------------------------------|(play 2x)  
C|-3-4-5-----3-3-4-5-----3-4-5-----3-3-4-5---|           
G|-3-4-5-----3-3-4-5-----3-4-5-----3-3-4-5---|           
C|-3-4-5-(3)-3-3-4-5-----3-4-5-(3)-3-3-4-5---|   
 
          
D|-------------------------------------------|           
A|-------------------------------------------|           
F|-------------------------------------------| (play 1x)  
C|-3-4-5-----3-3-4-5-----3-4-5------3--3--3--|           
G|-3-4-5-----3-3-4-5-----3-4-5------3--3--3--|           
C|-3-4-5-(3)-3-3-4-5-----3-4-5-(3)--3--3--3--|   
 
   
(both guitars) 
D|-----------------------------------| 
A|-----------------------------------| 
F|-----------------------------------| (play 4x) 
C|-12-12-12--11-11-11--7-7-7-7-7--3-4| 
G|-12-12-12--11-11-11--7-7-7-7-7--3-4| 
C|-12-12-12--11-11-11--7-7-7-7-7--3-4|  
 
(both guitars) 
D|--------------------------------| 
A|--------------------------------| 
F|--------------------------------| 
C|-3--0--3--0--3--0--3--0--8-8-8~~| (play 4x) 
G|-3--0--3--0--3--0--3--0--8-8-8~~| 
C|-3--0--3--0--3--0--3--0--8-8-8~~|  
 
   
(1st guitar) 
D|-------------------------------------------|           
A|-------------------------------------------|           
F|-------------------------------------------|(play 2x)  
C|-3-4-5-----3-3-4-5-----3-4-5-----3-3-4-5---|           
G|-3-4-5-----3-3-4-5-----3-4-5-----3-3-4-5---|           
C|-3-4-5-(3)-3-3-4-5-----3-4-5-(3)-3-3-4-5---|   
 
(outro)          
D|-------------------------------------------|           
A|-------------------------------------------|           
F|-------------------------------------------| (play 1x)  
C|-3-4-5-----3-3-4-5-----3-4-5------3--3--3--|           
G|-3-4-5-----3-3-4-5-----3-4-5------3--3--3--|           
C|-3-4-5-(3)-3-3-4-5-----3-4-5-(3)--3--3--3--|   		   
AcordesyTabs.com © 2008 Acordes y Tablaturas para guitarra. Tabs and Chords for guitar. Aviso Legal - Contacto
El uso de este sitio está sujeto a la aceptación de los términos y condiciones (20 usuarios online)