tablaturas, partituras y acordes para guitarra
Busca por banda/artista:
 
y/o título de la canción:
A B C D E F G H I J K L M N O P Q R S T U V W X Y Z 0 1 2 3 4 5 6 7 8 9 / Top 100 tabs
Categorías
Usuarios
usuario:
Darse de alta
password:
Artistas más visitados
Publicidad
TOP acordes y tablaturas de Symphony x


Awakenings
de Symphony x
Puntúa este acorde/tab:      
(0.7/5)
Reportar este acorde/tab
  Añadir a tus favoritos
  Imprimir
Intro
-------------------2----2-2-----2---------2-2----3----
-------------------2----2-2-----2---------2-2----5----
-4-----------------4----4-4-----4---------4-4----5----
-4----------------------------------------------------
-2..bass solo..---------------------------------------
------------------------------------------------------


----3-3-------3-----3-3----3-----2-2--2--2-2--2-------
----5-5-------5-----5-5----5-----2-2--2--2-2--2-------
----5-5-------5-----5-5----5-----4-4--4--4-4--4-------
------------------------------------------------------
------------------------------------------------------
------------------------------------------------------


-3-3----3----3-3----3---------------------------------
-5-5----5----5-5----5---------------------------------
-5-5----5----5-5----5----SOLO1------------------------
------------------------------------------------------
------------------------------------------------------
------------------------------------------------------

SOLO 1
------------------------------------------------------
-----------------12--12/14----12----------------------
-/11----------11-----------------------------------9--
------12--------------------------12-12----9-11-12----
------------------------------------------------------
------------------------------------------------------


------------------------------------------------------
---------12-12/14-12----------------------------------
11----11----------------------------------------------
---12----------------12-12----11-9-8----9-11-12-------
------------------------------------------------------
------------------------------------------------------


------------------------------------------------------
--------------11-12--14-15-14-12h14p12/10h12p10/9-----
-----------11-------------------------------------/6..
-11-12-11---------------------------------------------
------------------------------------------------------
------------------------------------------------------
		   
AcordesyTabs.com © 2008 Acordes y Tablaturas para guitarra. Tabs and Chords for guitar. Aviso Legal - Contacto
El uso de este sitio está sujeto a la aceptación de los términos y condiciones (26 usuarios online)