tablaturas, partituras y acordes para guitarra
Busca por banda/artista:
 
y/o título de la canción:
A B C D E F G H I J K L M N O P Q R S T U V W X Y Z 0 1 2 3 4 5 6 7 8 9 / Top 100 tabs
Categorías
Usuarios
usuario:
Darse de alta
password:
Artistas más visitados
Publicidad
TOP acordes y tablaturas de Angra


Estás en: Inicio > Letra A > Acordes y tablaturas de Angra > Heroes of sand (acoustic version)
Heroes of sand (acoustic version)
de Angra
Puntúa este acorde/tab:      
(0.6/5)
Reportar este acorde/tab
  Añadir a tus favoritos
  Imprimir
[Music: Edu Falaschi / Lyrics: Rafael Bittencourt]

Trilha 1
                                                                          
E |  | -------------------------------17t | ----------------------------------- | 
B |  | --------8----12t------------15t--- | -----------12t---------------15t--- | 
G |  | ----------------------11-14t------ | ------7----------------11---------- | 
D |  | ------9---12t--------------------- | --------12t---12t---------14t---14t | 
A |  | ----7--------------12------------- | ----9---------------12------------- | 
E |  | --0-------------10---------------- | --7--------------10---------------- | 


                                                                                                    
-------------------------------17t | ------------------------------15t | --------12t-----12t----------- | 
--------8----12t------------15t--- | -----------12t-------------13t--- | --------10t-----10t--------10t | 
----------------------11-14t------ | ------7---------------9---------- | ------5------------5---------- | 
------9---12t--------------------- | --------12t---12t-------12t------ | --------9t------9t-------9t--- | 
----7--------------12------------- | ----9--------------10------------ | ----7---------7------7-------- | 
--0-------------10---------------- | --7--------------8--------------- | --5---------5----------5------ | 


                                                                  
--------12t-----12t----------- | -------------------------------17t | 
--------10t-----10t--------10t | --------8----12t------------15t--- | 
------5------------5---------- | ----------------------11-14t------ | 
--------9t------9t-------9t--- | ------9---12t--------------------- | 
----7---------7------7-------- | ----7--------------12------------- | 
--5---------5----------5------ | --0-------------10---------------- | 


                                                                       
----------------------------------- | -------------------------------17t | 
-----------12t---------------15t--- | --------8----12t------------15t--- | 
------7----------------11---------- | ----------------------11-14t------ | 
--------12t---12t---------14t---14t | ------9---12t--------------------- | 
----9---------------12------------- | ----7--------------12------------- | 
--7--------------10---------------- | --0-------------10---------------- | 


                                                                       
----------------------------------- | -------------------------------17t | 
-----------12t---------------15t--- | --------8----12t------------15t--- | 
------7----------------11---------- | ----------------------11-14t------ | 
--------12t---12t---------14t---14t | ------9---12t--------------------- | 
----9---------------12------------- | ----7--------------12------------- | 
--7--------------10---------------- | --0-------------10---------------- | 


                                                                                                
------------------------------15t | --------12t-----12t----------- | --------12t-----12t----------- | 
-----------12t-------------13t--- | --------10t-----10t--------10t | --------10t-----10t--------10t | 
------7---------------9---------- | ------5------------5---------- | ------5------------5---------- | 
--------12t---12t-------12t------ | --------9t------9t-------9t--- | --------9t------9t-------9t--- | 
----9--------------10------------ | ----7---------7------7-------- | ----7---------7------7-------- | 
--7--------------8--------------- | --5---------5----------5------ | --5---------5----------5------ | 


                                                                                                   
-------------------------------17t | --------------------------------- | --------12t-----12t---------- | 
--------8----12t------------15t--- | -----------12t-------------13t--- | --------10t-----10t------12t- | 
----------------------11-14t------ | ------7---------------9---------- | ------5------------5--------- | 
------9---12t--------------------- | --------12t---12t-------12t---12t | --------9t------9t-------12t- | 
----7--------------12------------- | ----9--------------10------------ | ----7---------7------7------- | 
--0-------------10---------------- | --7--------------8--------------- | --5---------5----------5-7t-- | 


                                                                     
--------------------------------- | -------------------------------17t | 
--13t---------13t----------13t--- | --------8----12t------------15t--- | 
--9t------------------9---------- | ----------------------11-14t------ | 
--12t------12t----------12t---12t | ------9---12t--------------------- | 
--10t---10---------10------------ | ----7--------------12------------- | 
--8t--8----------8--------------- | --0-------------10---------------- | 


                                                                                  
--------------------------------- | --------12t-----12t---------- | ---------------- |  | 
-----------12t-------------13t--- | --------10t-----10t------12t- | --13t----------- |  | 
------7---------------9---------- | ------5------------5--------- | --9t------------ |  | 
--------12t---12t-------12t---12t | --------9t------9t-------12t- | --12t----------- |  | 
----9--------------10------------ | ----7---------7------7------- | --10t----------- |  | 
--7--------------8--------------- | --5---------5----------5-7t-- | --8t------------ |  | 
 


Bm      A
Sealing light
F#m         G    A
Nothing to see
Bm      A      F#m
Like a miracle life
G            Em  
Starts with the pain
          Bm            A F#m G A
Forever this will be


Bm        A
Close my eyes
F#m            G      A
Thunders won't cease
Bm      A           F#m      
Crawling down to the edge
G             Em       
I break down and weep
          Bm            A  F#m G
Tears on a river deep


Em F#m G        Bm      A  F#m  G
Oh! Back to the sea
Em F#m G
Oh ooo!            


F#m       D/F#
Shout loud
E/G#      A
Moving ahead
F#m        D/F#           E/G#
Ride the horses of justice
A         D/F#     Bm
Virtues of men, yawns!


F#m        D/F#
Down and out
E/G#          A
Losing my head
F#m         D/F#            E/G#      
Like a dream you're returning
A            D/F#      Bm
Back from the dead-awake!
G           E        B 
Shadows will fade someday


Em               C
All the heroes go down
         G            D
Shed their blood on the land
Em           C
Dreaming somehow
      G           D            
The divine will now stand
Em         C
Heroes go down
           G               D
With their hearts on their hands
C                        Em                  B      
Building (is building) their castles (build up) on the sand

Guitarra 1:
                                
e | ------------- | ----------------- | ------------ | --------------------------- | 
B | ------------- | ----------------- | ------------ | --------------------------- | 
G | --------9~~-- | ------7/9-7~----- | ------------ | --------------------------- | 
D | ------------- | ----------------- | --9/10-9~--- | -7--9--10--12---10--9--7-5- | 
A | --9-10------- | ----------------- | ------------ | --------------------------- | 
E | ------------- | ----------------- | ------------ | --------------------------- | 
 
--------------------------- | 
--------------------------- | 
--------------------------- | 
----4~~----4--------------- | 
--------------7---5h7------ | 
----------------7---------- | 

Guitarra 2:
                                         
e | ---12----10/12/10~---12----14/15-14~-12-10---- | ---12----10/12-10~----12-----14/15-14~-
B | -------------------------------------------10- | ---------------------------------------
G | -9----9------------9----9--------------------- | -9----9-------------9----9-------------
D | ---------------------------------------------- | ---------------------------------------
A | ---------------------------------------------- | ---------------------------------------
E | ---------------------------------------------- | ---------------------------------------

-12-14-15--15bf---15-14-12---10bf-----
--------------------------------------
--------------------------------------
--------------------------------------
--------------------------------------
--------------------------------------

-------------------------- | -8~---8~---7~--7~-- | -7h8p7--------------------------------- | 
-12br---12-10--8--12-10--- | -10b-10b--11b--11b- | -------10-8-7-8--7h8p7----------------- | 
-------------------------- | ------------------- | ------------------------9-8------------ | 
-------------------------- | ------------------- | ----------------------------10-9-13--14 | 
-------------------------- | ------------------- | --------------------------------------- | 
-------------------------- | ------------------- | --------------------------------------- | 


C            G
Haunted by the heavy clouds
D         A           E 
Thunder scaring away
F            C
Howling like a mountain wolf
G           D                 A
Warriors are leading the way


Em               C
All the heroes go down
         G            D
Shed their blood on the land
Em           C
Dreaming somehow
      G           D            
The divine will now stand
F#m         D
Heroes go down
           A              E
With their hearts on their hands
D                        F#m                  C#  
Building (is building) their castles (build up) on the sand
      D   F#m            E            A               D   F#m           A         E      
on the saaaand . . . . heroes go down . . . on the saaaand . . . heroes of the sand
( D F#m E A D F#m E A ) 		   
AcordesyTabs.com © 2008 Acordes y Tablaturas para guitarra. Tabs and Chords for guitar. Aviso Legal - Contacto
El uso de este sitio está sujeto a la aceptación de los términos y condiciones (27 usuarios online)