tablaturas, partituras y acordes para guitarra
Busca por banda/artista:
 
y/o título de la canción:
A B C D E F G H I J K L M N O P Q R S T U V W X Y Z 0 1 2 3 4 5 6 7 8 9 / Top 100 tabs
Categorías
Usuarios
usuario:
Darse de alta
password:
Artistas más visitados
Publicidad
TOP acordes y tablaturas de Allman brothers band


Midnight blues
de Allman brothers band
Puntúa este acorde/tab:      
(0.4/5)
Reportar este acorde/tab
  Añadir a tus favoritos
  Imprimir
Intro 

E | -------------------------------------------------------
A | -------------------------------------------------------
D | -------------------------------------------------------
G | ---------------------------------------------------7---
B | --10
-----12---------10
-----12-----12--8------8---
E | --------10-----10------------10-----10-------------7---



E | -------------------------------------------------------
A | -------------------------------------------------------
D | -------------------------------------------------------
G | -------------------------------------------------------
B | --3---5-------3----5------5--3---------------------
E | ------3----3---------3----3----------------------------



E | --------------------------------------------------------
A | --------------------------------------------------------
D | --------------------------------------------------------
G | --------------------------------------------------------
B | --5----7----7------3----5---------------------------
E | ------5----5-------------3----3---5--3------------------



Try:
G: 355433
C: 335553
D: 557775



G
Wake up mama, don’t you sleep so hard
C                                G
Wake up mama, don’t you sleep so hard
D                        C             G
Wish that tornado would blow my blues away


Got the blues like midnight, honey won't be long 'fore day
Got the blues like midnight, honey won't be long 'fore day
Lord I wish that tornado would blow my blues away

Lord, I can tell my bulldog when I hear him bark
I can tell my bulldog when I hear him bark
Lord, I can tell my baby, when I hear her in the dark.
 		   
AcordesyTabs.com © 2008 Acordes y Tablaturas para guitarra. Tabs and Chords for guitar. Aviso Legal - Contacto
El uso de este sitio está sujeto a la aceptación de los términos y condiciones (28 usuarios online)