tablaturas, partituras y acordes para guitarra
Busca por banda/artista:
 
y/o título de la canción:
A B C D E F G H I J K L M N O P Q R S T U V W X Y Z 0 1 2 3 4 5 6 7 8 9 / Top 100 tabs
Categorías
Usuarios
usuario:
Darse de alta
password:
Artistas más visitados
Publicidad
TOP acordes y tablaturas de Kamelot


Forever
de Kamelot
Puntúa este acorde/tab:      
(0.6/5)
Reportar este acorde/tab
  Añadir a tus favoritos
  Imprimir
first guitar 
|---------6-7-7-8-8-------------------------| 
|---6-7-9-----------7---6-7-7-6-6-----------| 
|-8-------------------8-----------6-------6-| 
|-----------------------------------6-8-6---| 
|-------------------------------------------| 
|-------------------------------------------| 
 
 
|---------6-7-7-6-6---12-14-15-15-14-14------| 
|---6-7-9-----------7------------------15-17-| 
|-8------------------------------------------| 
|--------------------------------------------| 
|--------------------------------------------| 
|--------------------------------------------| 
 
 
 second guitar 
|------------------------------------------| 
|------------------------------------------| 
|------------------------------------------| 
|-9--7--5------7---------------------------| 
|-7--5--3------5--5--7(2)------------------| 
|-----------------3--5(0)------------------| 
 
 
|------------------------------------------| 
|------------------------------------------| 
|------------------------------------------| 
|-9-9-9---5-5-5---7-7-7--------------------| 
|-7-7-7---3-3-3---5-5-5---7-7-7------------| 
|-------------------------5-5-5------------| 
 
 
  
|------------------------------------------| 
|------------------------------------------| 
|------------------------------------------| 
|---7--9--7-5-7--9----5--7--5-4-7--9-------| 
|------------------------------------------| 
|------------------------------------------| 
 
 
 start to sing... 
|-(12)--(12)------|-------------------------| 
|-----------------|-------------------------| 
|-----------------|-------------------------| 
|-----------------|-------------------------| 
|-----------------|-----2--2--2-------------| 
|-----------------|-----0--0--0---0-0-------| 
 
 
 pre-chorus 
|------------------------------------------| 
|------------------------------------------| 
|------------------------------------------| 
|--5----7----4-----------------------------| 
|--3----5----2---333333--555555------------| 
|------------------------------------------| 
 
 chorus 
|------------------------------------------| 
|------------------------------------------| 
|------------------------------------------| 
|--9---7---5--7----------------------------| 
|--7---5---3--5--5--4----------------------| 
|----------------3--2----------------------| 
 
 riff 2 
|-(12)-----(12)------(12)------(12)--------| 
|------------------------------------------| 
|------------------------------------------| 
|------------------------------------------| 
|---2--2--2--------------------------------| 
|---0--0--0---0-0--------------------------| 
 
 
|------------------------------------------| 
|------------------------------------------| 
|------------------------------------------| 
|------------------------------------------| 
|--777777-9-101010--77777777-5-------------| 
|------------------------------------------| 
 
pre-chorus 
chorus 
 
|------------------------------------------| 
|------------------------------------------| 
|------------------------------------------| 
|------7/9--7/9--7/9-----------------------| 
|--2---5/7--5/7--5/7-----------------------| 
|--0---------------------------------------| 
 
solo 
 
 second guitar in the solo 
|------------------------------------------| 
|------------------------------------------| 
|------------------------------------------| 
|--9---7---4---5-------------2-3-5-7-9-----| 
|--7---5---2---3--9--7----2-5--------------| 
|-----------------7--5---3-----------------| 
 
 
|------------------------------------------| 
|------------------------------------------| 
|------------------------------------------| 
|---7--9--7-5-7--9----5--7--5-4-7--9-------| 
|------------------------------------------| 
|------------------------------------------| 
 
pre-chorus 
chorus 
 
 
|------------------------------------------|| 
|------------------------------------------|| 
|------------------------------------------|| 
|---7--9--7-5-7--9----5--7--5-4-7--9-------|| 
|------------------------------------------|| 
|------------------------------------------||		   
AcordesyTabs.com © 2008 Acordes y Tablaturas para guitarra. Tabs and Chords for guitar. Aviso Legal - Contacto
El uso de este sitio está sujeto a la aceptación de los términos y condiciones (22 usuarios online)