tablaturas, partituras y acordes para guitarra
Busca por banda/artista:
 
y/o título de la canción:
A B C D E F G H I J K L M N O P Q R S T U V W X Y Z 0 1 2 3 4 5 6 7 8 9 / Top 100 tabs
Categorías
Usuarios
usuario:
Darse de alta
password:
Artistas más visitados
Publicidad
TOP acordes y tablaturas de Metallica


Estás en: Inicio > Letra M > Acordes y tablaturas de Metallica > Jump In The Fire Intro
Jump In The Fire Intro
de Metallica
Puntúa este acorde/tab:      
(0.4/5)
Reportar este acorde/tab
  Añadir a tus favoritos
  Imprimir
                         METALLICA - JUMP IN THE FIRE(INTRO SOLO)



Transcribed by: (¯`·.,¸¸.·´¯MILKYWAY¯`··.,¸¸.·´¯)
Email: milkyway@usa.com



E|-------------------------|------------------------|---3------------|
B|-6p3p0-------6p3p0-------|6p3p0-------6p3p0-------|-3-3--------6-3-|
G|-------5p3p0-------5p3p0-|------5p3p0-------5p3p0-|----------------|
D|-------------------------|------------------------|----------------|
A|-------------------------|------------------------|----------------|
E|-------------------------|------------------------|----------------|



E|-----3------------|--3------------------------------|
B|---3-----6---3----|----6-3------------------------15|
G|-5--------------5-|7-------5--5-3-----3-/15-17-19---|
D|------------------|---------------5-----------------|
A|------------------|---------------------------------|
E|------------------|---------------------------------|


E|-15---------------------------|-----------------|------------------|
B|----18-15---------------------|-----------------|--------------0---|
G|----------17-15-17-15----15---|--3-----15-----3-|----15---15---0--5|
D|----------------------17------|--3-----15-----3-|----15---15---0---|
A|------------------------------|-----------------|------------------|
E|------------------------------|-----------------|------------------|


E|-----------------------------|--------------------------|
B|---3-6-3----3---6-3-----3-6-3|-----6-3------------------|
G|-7-------5----------5--------|-5-4-----5-3----3-5-5-7-3-|
D|-----------------------------|-------------5------------|
A|-----------------------------|--------------------------|
E|-----------------------------|--------------------------|



E|--------------------|--------------------------|
B|--------------------|--------------------------|
G|---3-5-3------------|--------------------------|
D|----------5-3-------|--------------------------|
A|--------------5-3-1-|-3-5-3-1----1-------------|
E|--------------------|----------3-----3/15-(12)-|



E|------------------------------|--------------------------|
B|-17-18-17-15----15---17-18-17-|15----15---17-18-17-15----|
G|-17-19-17-15----15---17-19-17-|15----15---17-19-17-15----|
D|-------------17---------------|---17------------------17-|
A|------------------------------|--------------------------|
E|------------------------------|--------------------------|



E|------------15----------------|--------------------------|
B|---------------18-15----------|--------------18-20-------|
G|-15-17-19------------17-15----|-15-17-19-15--------------|
D|---------------------------17-|--------------------------|
A|------------------------------|--------------------------|
E|------------------------------|--------------------------|



This solo 100% accurate...:) its kind of pretty hard keep practicing you will ge
Any Comments, Additions, or Corrections? Feel free to E-mail me: milkyway@usa.co
		   
AcordesyTabs.com © 2008 Acordes y Tablaturas para guitarra. Tabs and Chords for guitar. Aviso Legal - Contacto
El uso de este sitio está sujeto a la aceptación de los términos y condiciones (36 usuarios online)