tablaturas, partituras y acordes para guitarra
Busca por banda/artista:
 
y/o título de la canción:
A B C D E F G H I J K L M N O P Q R S T U V W X Y Z 0 1 2 3 4 5 6 7 8 9 / Top 100 tabs
Categorías
Usuarios
usuario:
Darse de alta
password:
Artistas más visitados
Publicidad
TOP acordes y tablaturas de Metallica


Estás en: Inicio > Letra M > Acordes y tablaturas de Metallica > Jump In The Fire Outro Solo
Jump In The Fire Outro Solo
de Metallica
Puntúa este acorde/tab:      
(0.1/5)
Reportar este acorde/tab
  Añadir a tus favoritos
  Imprimir
               METALILCA - JUMP IN THE FIRE(OUTRO SOLO)


Transcribed by: (¯`·.,¸¸.·´¯MILKYWAY¯`··.,¸¸.·´¯)
Email: milkyway@usa.com

E|------------------------------------------------|
B|------------------------------------------------|
G|-----------------------------------------15-17--|
D|--------------------15-15-17p15----15-17--------|
A|--------13-13-15/17-------------17--------------|
E|--13h15-----------------------------------------|



E|--------------------------18p15-------------------|
B|-----------------15-18p15-------18p15----15-18p15-|
G|--17p15----15-17b---------------------17b---------|
D|--------17----------------------------------------|
A|--------------------------------------------------|
E|--------------------------------------------------|

E|--18p15-------------------18p15-------------------|
B|--------18p15----15-18p15-------18p15----15-15-18-|
G|--------------17b---------------------17b---------|
D|--------------------------------------------------|
A|--------------------------------------------------|
E|--------------------------------------------------|



E|---------------------------------|---------------18b-----18b---|
B|--18p15--------------------------|--18b---18r-15---------------|
G|--------17--15------15--17b------|-----------------------------|
D|----------------17------------0--|-----------------------------|
A|---------------------------------|-----------------------------|
E|---------------------------------|-----------------------------|



E|--18r--15-----15------------15--|--18p15----15-18p15--------------------------
B|----------18------18b---18b-----|--------18----------18p15-18p15--------------
G|--------------------------------|--------------------------------17--15-----15
D|--------------------------------|----------------------------------------17---
A|--------------------------------|---------------------------------------------
E|--------------------------------|---------------------------------------------



E|----------------------------|----------------------------------|
B|------18------18~---18--15--|--18b---18r15---------------------|
G|--15--17b-----17b---19------|--------------17--15------15--17b-|
D|----------------------------|----------------------17----------|
A|----------------------------|----------------------------------|
E|----------------------------|----------------------------------|



E|--------------------------------|------------------------------------|
B|--------------------------------|------15--18p15---------------------|
G|---15-----15--17b-15r-------15--|--17b-----------17--15------15--17r-|
D|------17----------------17------|------------------------17----------|
A|--------------------------------|------------------------------------|
E|--------------------------------|------------------------------------|



E|--------------------------------|---------------------------------------------
B|--------------------------------|------15--18p15-18p15----15-18p15-18p15----15
G|---15-----15--17b-15r-------15--|--17b-----------------17b---------------17b--
D|------17----------------17------|---------------------------------------------
A|--------------------------------|---------------------------------------------
E|--------------------------------|---------------------------------------------



E|--------------------------------------------------|
B|--18p15-18p15----15-18p15-18p15----15-18p15----15-|
G|--------------17b---------------17----------17----|
D|--------------------------------------------------|
A|--------------------------------------------------|
E|--------------------------------------------------|



E|--------------------------------------------------|
B|--18p15----15-18p15-18p15----15-18p15-18p15----15-|
G|--------17----------------17----------------17----|
D|--------------------------------------------------|
A|--------------------------------------------------|
E|--------------------------------------------------|



E|-----------------------------------0--15--|
B|--18p15-18p15-15h18p15-18p15-18b----------|
G|------------------------------------------|
D|------------------------------------------|
A|------------------------------------------|
E|------------------------------------------|



E|--17-15-15-15-18-15-15-15-20-15-15-15-18-15-15-15-|
B|--------------------------------------------------|
G|--------------------------------------------------|
D|--------------------------------------------------|
A|--------------------------------------------------|
E|--------------------------------------------------|




E|--17-15-15-15-18-15-15-15-20-15-15-15-18-15-15-15-|
B|--------------------------------------------------|
G|--------------------------------------------------|
D|--------------------------------------------------|
A|--------------------------------------------------|
E|--------------------------------------------------|




E|--17-15-15-15-18-15-15-15-20-15-15-15-18-15-15-15-|
B|--------------------------------------------------|
G|--------------------------------------------------|
D|--------------------------------------------------|
A|--------------------------------------------------|
E|--------------------------------------------------|




E|--17-15-15-15-18-15-15-15-20-15-15-15-18-15-15-15-|
B|--------------------------------------------------|
G|--------------------------------------------------|
D|--------------------------------------------------|
A|--------------------------------------------------|
E|--------------------------------------------------|




E|--17-15-15-15-18-15-15-15-20-15-15-15-22-15-15-15-|
B|--------------------------------------------------|
G|--------------------------------------------------|
D|--------------------------------------------------|
A|--------------------------------------------------|
E|--------------------------------------------------|




E|--20-15-15-15-18-15-15-15-17-15-15-15-18-15-15-15-|
B|--------------------------------------------------|
G|--------------------------------------------------|
D|--------------------------------------------------|
A|--------------------------------------------------|
E|--------------------------------------------------|




E|--20-15-15-15-18-15-15-15-17-15-15-15-18-15-15-15-| 
B|--------------------------------------------------|
G|--------------------------------------------------|
D|--------------------------------------------------|
A|--------------------------------------------------|
E|--------------------------------------------------|




E|--20-15-15-15-18-15-15-15-17-15-15-15-18-15-15-15-| 
B|--------------------------------------------------|
G|--------------------------------------------------|
D|--------------------------------------------------|
A|--------------------------------------------------|
E|--------------------------------------------------|




E|--18p15--------18p15-15h18p15----15-18p15-18p15-----15-|
B|--------18p15-----------------18-----------------18----|
G|-------------------------------------------------------|
D|-------------------------------------------------------|
A|-------------------------------------------------------|
E|-------------------------------------------------------|




E|--18P15-18P15------15-18P15-18P15-----15-18P15-18------|
B|---------------18------------------18------------------|
G|-------------------------------------------------------|
E|-------------------------------------------------------|
A|-------------------------------------------------------|
E|-------------------------------------------------------|




E|--18b--18b---18p15------15--18b---|----15-----15--18--18b--18b-15r-|
B|--------------------18------------|-------18-----------------------|
G|----------------------------------|--------------------------------|
D|----------------------------------|--------------------------------|
A|----------------------------------|--------------------------------|
E|----------------------------------|--------------------------------|




E|--18p15-----15----------------------------|----------------------------------|
B|--------18-----18-15-18p15-----15---------|----------------------------------|
G|-----------------------------17-----17-15-|--17p15-----15----15-17-17b---15--|
D|------------------------------------------|---------17----17-----------------|
A|------------------------------------------|----------------------------------|
E|------------------------------------------|----------------------------------|




E|---------------------------------------------|--------------------------------
B|-----------------------------17b~------------|--------------------------------
G|-----15--17p15-----15-17-15--17b~----17-15---|----17p15-----------------------
D|--17------------17---------------------------|----------17-15-----------------
A|---------------------------------------------|-----------------17-15-13-15-13-
E|---------------------------------------------|--------------------------------




E|-----------------------------------------|------------------------------------
B|-----------------------------------------|------------------------------------
G|-----------------------------------------|----------------15-17-17b-15r-------
D|-----------------------------------------|---------15-17----------------------
A|--15b-13r----13~-------------------13----|--15/17-----------------------------
E|---------15--------------------15--------|------------------------------------



                                                            fade out
E|------------------------------------------------------------------------------
B|-----------------------------------18------18------18--18b~ full--------------
G|--17-15------15~-------15-17bfull------17b-----17b-----17b~ full--------------
D|---------17---------17--------------------------------------------------------
A|------------------------------------------------------------------------------
E|------------------------------------------------------------------------------

This solo 100% accurate...:) its kind of pretty hard keep practicing you will ge
Any Comments, Additions, or Corrections? Feel free to E-mail me: milkyway@usa.co
		   
AcordesyTabs.com © 2008 Acordes y Tablaturas para guitarra. Tabs and Chords for guitar. Aviso Legal - Contacto
El uso de este sitio está sujeto a la aceptación de los términos y condiciones (39 usuarios online)