tablaturas, partituras y acordes para guitarra
Busca por banda/artista:
 
y/o título de la canción:
A B C D E F G H I J K L M N O P Q R S T U V W X Y Z 0 1 2 3 4 5 6 7 8 9 / Top 100 tabs
Categorías
Usuarios
usuario:
Darse de alta
password:
Artistas más visitados
Publicidad
TOP acordes y tablaturas de Angra


Estás en: Inicio > Letra A > Acordes y tablaturas de Angra > Holy land
Holy land
de Angra
Puntúa este acorde/tab:      
(0.6/5)
Reportar este acorde/tab
  Añadir a tus favoritos
  Imprimir
Intro/Piano
                                                             
E||--------6--8--------6--8--|--------6-6---6-6-6---6-6--8--|
B||--------------------------|------------------------------|
G||--------------------------|------------------------------|
D||--------------------------|------------------------------|
A||--------------------------|------------------------------|
E||--8---8-------8---8-------|--8---8-----8-------8---------|


                                                           
--------6--8--------10--8--|--------6-6---6-6-6---6-6--8--|
---------------------------|------------------------------|
---------------------------|------------------------------|
---------------------------|------------------------------|
---------------------------|------------------------------|
--8---8-------8---8--------|--8---8-----8-------8---------|


                                                          
--------7--8--------7--8--|--------7-7---7-7-7---7-7--8--|
--------------------------|------------------------------|
--------------------------|------------------------------|
--------------------------|------------------------------|
--0---0-------0---0-------|--0---0-----0-------0---------|
--------------------------|------------------------------|


                                                          
--------6--8--------6--8--|--------6-6---6-6-6---6-6--8--|
--------------------------|------------------------------|
--------------------------|------------------------------|
--------------------------|------------------------------|
--------------------------|------------------------------|
--4---4-------4---4-------|--4---4-----3-------3---------|


                                                          
--------6--8--------6--8--|--------6-6---6-6-6---6-6--8--|
--------------------------|------------------------------|
--------------------------|------------------------------|
--------------------------|------------------------------|
--------------------------|------------------------------|
--8---8-------8---8-------|--8---8-----8-------8---------|


                                                           
--------6--8--------10--8--|--------6-6---6-6-6---6-6--8--|
---------------------------|------------------------------|
---------------------------|------------------------------|
---------------------------|------------------------------|
---------------------------|------------------------------|
--8---8-------8---8--------|--8---8-----8-------8---------|


                                                          
--------7--8--------7--8--|--------7-7---7-7-7---7-7--8--|
--------------------------|------------------------------|
--------------------------|------------------------------|
--------------------------|------------------------------|
--0---0-------0---0-------|--0---0-----0-------0---------|
--------------------------|------------------------------|


                                                           
--------6--8--------6--8--|--------6-6---6-6-6---6-6--8--||
--------------------------|------------------------------||
--------------------------|------------------------------||
--------------------------|------------------------------||
--------------------------|------------------------------||
--4---4-------4---4-------|--4---4-----3-------3---------||



Then, the guitars are like this:
                                                                
E||-------------------|-------------------|--------------------|
B||--8----------------|--6----------------|-----------4--------|
G||--7----------------|--5----------------|--5--------5--------|
D||--5----------------|--3----------------|--5--------5--------|
A||--5----------------|--3----------------|--3--------3--------|
E||-------------------|-------------------|--------------------|
   Someone has ...

                                                            
-------------------|-------------------|-------------------|
-------------------|--8----------------|--6----------------|
--4----------------|--7----------------|--5----------------|
--5----------------|--5----------------|--3----------------|
--5----------------|--5----------------|--3----------------|
--3----------------|-------------------|-------------------|
                   
         							I can't tab this F@'#$% part
                                                but is easy to play!                    
--------------------|---------------------||-----------------------|
-----------4--------|---------------------||-----------------------|
--5--------5--------|--4------------------||*----------------------|
--5--------5--------|--5--------5----4----||*--2--2-----------2--2-|
--3--------3--------|--5------------------||-----------------------|
--------------------|--3------------------||-----------------------|


                                                                 
-----------------------||-------------------|-------------------|
-----------------------||--8----------------|--6----------------|
--2----2----2----2----*||--7----------------|--5----------------|
----------------------*||--5----------------|--3----------------|
-----------------------||--5----------------|--3----------------|
-----------------------||-------------------|-------------------|
                         My soul ... 

                                                                             
------------------|------------------|------------------|-------------------|
------------------|------------------|------------------|--6----------------|
------------------|------------------|------------------|--5----------------|
------------------|------------------|------------------|--3----------------|
------------------|------------------|------------------|--3----------------|
------------------|------------------|------------------|-------------------|


                                                             
-------------------|--------------------|-------------------|
--4----------------|-----------2--------|-------------------|
--3----------------|--3--------3--------|--2----------------|
--1----------------|--3--------3--------|--3----------------|
--1----------------|--1--------1--------|--3----------------|
-------------------|--------------------|--1----------------|


                                                             
-------------------|-------------------|--------------------|
--6----------------|--4----------------|-----------2--------|
--5----------------|--3----------------|--3--------3--------|
--3----------------|--1----------------|--3--------3--------|
--3----------------|--1----------------|--1--------1--------|
-------------------|-------------------|--------------------|


                                                             
---------------------|-------------------|------------------|
---------------------|-------------------|------------------|
--2------------------|-------------------|------------------|
--3--------3----2----|--0----------------|------------------|
--3------------------|-------------------|------------------|
--1------------------|-------------------|------------------|


                                                             
-------------------|-------------------|--------------------|
--8----------------|--6----------------|-----------4--------|
--7----------------|--5----------------|--5--------5--------|
--5----------------|--3----------------|--5--------5--------|
--5----------------|--3----------------|--3--------3--------|
-------------------|-------------------|--------------------|
Someone has ...

                                                            
-------------------|-------------------|-------------------|
-------------------|--8----------------|--6----------------|
--4----------------|--7----------------|--5----------------|
--5----------------|--5----------------|--3----------------|
--5----------------|--5----------------|--3----------------|
--3----------------|-------------------|-------------------|


                                                                  
--------------------|-------------------||-----------------------|
-----------4--------|-------------------||-----------------------|
--5--------5--------|--4----------------||*----------------------|
--5--------5--------|--5----------------||*--2--2-----------2--2-|
--3--------3--------|--5----------------||-----------------------|
--------------------|--3----------------||-----------------------|


                                                                 
-----------------------||-------------------|-------------------|
-----------------------||--8----------------|--6----------------|
--2----2----2----2----*||--7----------------|--5----------------|
----------------------*||--5----------------|--3----------------|
-----------------------||--5----------------|--3----------------|
-----------------------||-------------------|-------------------|


                                                                    
------------------|--------------------||--------------------------|
------------------|--------------------||--------------------------|
------------------|----------7----7----||*-------------------------|
------------------|----------7----7----||*-------------------------|
------------------|----------5----5----||---3---3-1--3--3---3-1--3-|
------------------|--------------------||--------------------------|


   Repeat many times                                                                           
-------------------------||-------------------------|------------------------|
-------------------------||-------------------------|------------------------|
------------------------*||-------------------------|-----------------7---7--|
------------------------*||-------------------------|-----------------7---7--|
---3---3-1--3----5---5---||--3---3-1--3--3---3-1--3-|---3---3-1--3----5---5--|
-------------------------||-------------------------|------------------------|


                     
-------------------||
-------------------||
--5----------------||
--5----------------||
--3----------------||
-------------------||
		   
AcordesyTabs.com © 2008 Acordes y Tablaturas para guitarra. Tabs and Chords for guitar. Aviso Legal - Contacto
El uso de este sitio está sujeto a la aceptación de los términos y condiciones (22 usuarios online)