tablaturas, partituras y acordes para guitarra
Busca por banda/artista:
 
y/o título de la canción:
A B C D E F G H I J K L M N O P Q R S T U V W X Y Z 0 1 2 3 4 5 6 7 8 9 / Top 100 tabs
Categorías
Usuarios
usuario:
Darse de alta
password:
Artistas más visitados
Publicidad
TOP acordes y tablaturas de Marilyn manson


Estás en: Inicio > Letra M > Acordes y tablaturas de Marilyn manson > Beautiful people
Beautiful people
de Marilyn manson
Puntúa este acorde/tab:      
(0.5/5)
Reportar este acorde/tab
  Añadir a tus favoritos
  Imprimir
Afinação Metal: D A D G B E. 


INTRO 

e)--------------------------------------------------------------------------| 
b)--------------------------------------------------------------------------| 
g)--------------------------------------------------------------------------| 
d)--x--x--x--x--x---------------0----3---0-----0----3---0-------0---3---0---| 
a)--x--x--x--x--x----repete-----0----3---0-----0----3---0-------0---3---0---| 
D)--x--x--x--x--x---------------0----3---0-----0----3---0-------0---3---0---| 


----------------------------------------------------------------------------| 
----------------------------------------------------------------------------| 
----------------------------------------------------------------------------| 
-0--3---0------0--6--0--6--0-----------0--6--0--6--0------------------------| 
-0--3---0------0--6--0--6--0-----------0--6--0--6--0------Repete 4 Vezes----| 
-0--3---0------0--6--0--6--0-----------0--6--0--6--0------------------------| 



Verso (Baixo Junto) 

---------------------------------------------------------------------------| 
---------------------------------------------------------------------------| 
---------------------------------------------------------------------------| 
--x--x--x--x--x--x--x--x--x--x--x--x--x--x---------------------------------| 
--x--x--x--x--x--x--x--x--x--x--x--x--x--x-----------Repete----------------| 
--x--x--x--x--x--x--x--x--x--x--x--x--x--x---------------------------------| 


Ponte ( Sem Abafar ) 

----------------------------------------------------------------------------| 
----------------------------------------------------------------------------| 
-------------------------------------------------------repete-2-Vezes-------| 
----------------------------------------------------------------------------| 
--5---------4--------3-------2----------------------------------------------| 
----------------------------------------------------------------------------| 



Chorus 

-----------------------------------------------------------------------------| 
-----------------------------------------------------------------------------| 
-----------------------------------------------------------------------------| 
--0--6--0--6--0-----------0--6--0--6--0---------0--3--0----------------------| 
--0--6--0--6--0-----------0--6--0--6--0---------0--3--0-----Repete 4--Tempos-| 
--0--6--0--6--0-----------0--6--0--6--0---------0--3--0----------------------|


The Beautiful People


And I don't want you, and I don't need you
Don't bother to resist, or I'll beat you
It's not your fault that you're always wrong
The weak ones are there to justify the strong.

The beautiful people, the beautiful people
It's all relative to the size of your steaple
You can't see the forest for the trees
And you can't smell your own shit on your knees

There's a time to discriminate,
Hate every mother fucker that's in your way

Hey, you, what do you see?
Something beautiful, something free?
Hey, you, are you trying to be mean?
You live with apes man, it's hard to be clean

(ohhh)
(ohhh)

The worms will live in every host
It's hard to tell which one ate the most
The horrible people, the horrible people
It's all anatomic as the size of your steaple

Capitalism has made it this way,
Old-fashioned fascism
Will take it away

Hey you, what do you see?
something beautiful, something free?
hey you, are you trying to be mean?
you live with apes man, it's hard to be clean

There's a time to discriminate,
hate every mother fucker that's in your way

HEY! HEY! (repeat 4x)

The Beautiful People, The Beautiful People(ohhh)
The Beautiful People, The Beautiful People(ohhh)
The Beautiful People, The Beautiful People(ohhh)
The Beautiful People, The Beautiful People(ohhh)

Hey, you, what do you see?
Something beautiful, something free?
Hey you, are you trying to be mean?
You live with apes man, it's hard to be clean (x2)

The Beautiful People, The Beautiful People
The Beautiful People, The Beautiful People
The Beautiful People, The Beautiful People
The Beautiful People, The Beautiful People		   
AcordesyTabs.com © 2008 Acordes y Tablaturas para guitarra. Tabs and Chords for guitar. Aviso Legal - Contacto
El uso de este sitio está sujeto a la aceptación de los términos y condiciones (38 usuarios online)