tablaturas, partituras y acordes para guitarra
Busca por banda/artista:
 
y/o título de la canción:
A B C D E F G H I J K L M N O P Q R S T U V W X Y Z 0 1 2 3 4 5 6 7 8 9 / Top 100 tabs
Categorías
Usuarios
usuario:
Darse de alta
password:
Artistas más visitados
Publicidad
TOP acordes y tablaturas de Angra


Estás en: Inicio > Letra A > Acordes y tablaturas de Angra > Queen of the night
Queen of the night
de Angra
Puntúa este acorde/tab:      
(0.5/5)
Reportar este acorde/tab
  Añadir a tus favoritos
  Imprimir
||---------------------------------|-------------------------------|
B||---------------------------------|-------------------------------|
G||---------------------------------|-------------------------------|
D||-----------2-3-2----------6-7-6--|-------------------------------|
A||--7--7--7-----------7--7---------|----7--7--7-8-7--7--7--8----7--|
E||--0--0--0-----------0--0---------|----0--0---------0--0----------|


                                                                  
---------------------------------|-------------------------------|
---------------------------------|-------------------------------|
---------------------------------|-------------------------------|
--------------------------6-7-6--|------------6------------------|
--7--7--7--7-8-7----7--7---------|----7--7--8---8--7--7--6----7--|
--0--0--0-----------0--0---------|----0--0---------0--0----------|


                                                                  
---------------------------------|-------------------------------|
---------------------------------|-------------------------------|
---------------------------------|-------------------------------|
--------------------------6-7-6--|-------------------------------|
--7--7--7--7-8-7----7--7---------|----7--7--7-8-7--7--7--8----7--|
--0--0--0-----------0--0---------|----0--0---------0--0----------|


                                                                  
---------------------------------|-------------------------------|
---------------------------------|-------------------------------|
------------------------------5--|-------------------------------|
--------------------------6-7----|----------6-7-6--------6-------|
--7--7--7--7-8-7----7--7---------|----7--7---------7--7-------8--|
--0--0--0-----------0--0---------|----0--0---------0--0----------|


                                                                  
---------------------------------|-------------------------------|
---------------------------------|-------------------------------|
---------------------------------|-------------------------------|
--------------------------6-7-6--|-------------------------------|
--7--7--7--7-8-7----7--7---------|----7--7--7-8-7--7--7--8----7--|
--0--0--0-----------0--0---------|----0--0---------0--0----------|


                                                                  
---------------------------------|-------------------------------|
---------------------------------|-------------------------------|
------------------------------5--|-------------------------------|
--------------------------6-7----|----------6-7-6--------6-------|
--7--7--7--7-8-7----7--7---------|----7--7---------7--7-------8--|
--0--0--0-----------0--0---------|----0--0---------0--0----------|


                                                                               
-------------------------------------|----------------------------------------|
-------------------------------------|----------------------------------------|
-------------------------------------|----------------------------------------|
-------------------------------------|----------------------------------------|
----7--7--7--7--7-----7--7--7--7--7--|----7--7--7--7--7--7--7--7--7--7--7--7--|
----0--0--0--0--0-----0--0--0--0--0--|----0--0--0--0--0--0--0--0--0--0--0--0--|


                                                                               
-------------------------------------|----------------------------------------|
-------------------------------------|-------------------------------------1--|
-------------------------------------|-------------------------------------0--|
-------------------------------------|----------------------------------------|
----7--7--7--7--7-----7--7--7--7--7--|----7--7--7--7--7--7--7--7--7--7--7--3--|
----0--0--0--0--0-----0--0--0--0--0--|----0--0--0--0--0--0--0--0--0--0--0-----|


                                                                            
----------------------------------|----------------------------------------|
----1-----------------------------|----------------------------------------|
----0-----------------------------|----------------------------------------|
-------2--2--2-----2--2--2--2--2--|----2--2--2--2--2--2--2--2--2--2--2--2--|
----3-----------------------------|----------------------------------------|
-------0--0--0-----0--0--0--0--0--|----0--0--0--0--0--0--0--0--0--0--0--0--|


                                                                               
-------------------------------------|----------------------------------------|
-------------------------------------|----------------------------------------|
-------------------------------------|----------------------------------------|
----2--2--2--2--2-----2--2--2--2--2--|----2--2--2--2--2--2--2--2--2--2--2--2--|
-------------------------------------|-------------------------------------2--|
----0--0--0--0--0-----0--0--0--0--0--|----0--0--0--0--0--0--0--0--0--0--0--0--|



                                                              
--------------------------|----------------------------------|
----------0---------------|----------------------------------|
--------------------------|--------------0-------0-----------|
--2----2--2------2--2--2--|--2-4-2--2--4---2--2-----4--2--0--|
--------------------------|----------------------------------|
--0----0---------0--0--0--|------0--0------0--0--------------|


                                                                   
-----------------------------|------------------------------------|
-----------------------------|------------------------------------|
-----------------------------|------------------------------------|
--5----------5----------5----|--------5----------5----------------|
--3----3--3--3----3--3--3----|--3--3--3----3--3--3----3--2--0-----|
-----------------------------|---------------------------------3--|


                                                              
--------------------------|----------------------------------|
----------0---------------|----------------------------------|
--------------------------|--------------0-------0-----------|
--2----2--2------2--2--2--|--2-4-2--2--4---2--2-----4--2--0--|
--------------------------|----------------------------------|
--0----0---------0--0--0--|------0--0------0--0--------------|


                                                                   
-----------------------------|------------------------------------|
-----------------------------|------------------------------------|
-----------------------------|------------------------------------|
--5----------5----------5----|--------5----------5----------------|
--3----3--3--3----3--3--3----|--3--3--3----3--3--3----3--3--3--3--|
-----------------------------|------------------------------------|


                                                           
-------------------|------------------|-------------------|
--3----------------|------------------|-------------------|
--2----------------|------------------|--0----------------|
--0----------------|------------------|-------------------|
-------------------|------------------|--3----------------|
-------------------|------------------|-------------------|


                                                               
--5------7------5----|-------0-------------|------------------|
--7------8------7----|--7----8-------------|------------------|
---------0-----------|--7----0--7----------|------------------|
--7------9------7----|--0-------7----------|------------------|
--9-------------9----|--9----7--5----------|------------------|
---------------------|---------------------|------------------|


                                                                     
-------------------|--------------------------|---------------------|
-------------------|--------------------------|----------3----------|
-------------------|--------------------------|------0--------------|
--2----------------|--2--2--2--2--2--2--2--2--|---------------------|
--2----------------|--2--2--2--2--2--2--2--2--|--3------------------|
--0----------------|--0--0--0--0--0--0--0--0--|---------------------|


                                                                    
---------------------|----------------------|----------------------|
----------3----------|-----------3----------|-----------3----------|
------2--------------|--------0-------------|--------0-------------|
--0------------------|-----4----------------|-----4----------------|
---------------------|--2-------------------|--3-------------------|
---------------------|----------------------|----------------------|


                                                                    
----------------------|----------------------|---------------------|
-----------3----------|-----------3----------|---------3------1----|
--------0-------------|--------0-------------|--0------2------0----|
-----4----------------|--0--4----------------|--0------0-----------|
--3-------------------|----------------------|----------------3----|
----------------------|----------------------|--3------------------|


                                       
------------------|-------------------|
------------------|--1----------------|
------------------|--0----------------|
------------------|-------------------|
------------------|--3----------------|
------------------|-------------------|


                                          
-------0-2-0----------2-3-2----------3-5-|
-----------------------------------------|
------------------------0------------0---|
--2----2-4-2----------4---4------------7-|
-----------------------------------------|
--0-0--0-0-0-0--0--0--0-0-0-0--0--0--0-0-|


                                               
--3----------------3--------------------------|
-------------------1----------------0---------|
--0----------------0---------------------0----|
----------------------------------------------|
-------------------3----------------2---------|
--0-0--0--0--0--0--0-0--0--0--0--0--0-0----0--|


                                           
------------------------------------------|
------------------------------------------|
------------------------0------------5----|
--2----2-4-2----------4---4------------10-|
------------------------------------------|
--0-0--0-0-0-0--0--0--0-0-0-0--0--0--0-0--|


                                              
---------------------------------------------|
-------------------------3---------3---------|
-------------------------0---------2---------|
-------------------------0---------0-0--0--0-|
---------------------------------------------|
--0-0--0--0--0--0--0--0--3-3--3--3-----------|


                                          
-----------------------------------------|
-----------------------------------------|
------------------------0------------0---|
--2----2-4-2----------4---4------------7-|
-----------------------------------------|
--0-0--0-0-0-0--0--0--0-0-0-0--0--0--0-0-|


                                               
--3-------------------------------------------|
-------------------1----------------0---------|
--0----------------0---------------------0----|
----------------------------------------------|
-------------------3----------------2---------|
--0-0--0--0--0--0--0-0--0--0--0--0--0-0----0--|


                                                                  
----------------------------------------|----0--0--------0-------|
-------------------------------------7--|----8--8--7--7--8--7----|
-------0---0------------0---------------|----0--0--7--7--0--7----|
--2------7------------4---4----------7--|----------0--0-----0----|
-------------------------------------9--|----7--7--9--9--7--9----|
--0-0--0-0-0-0--0--0--0-0-0-0--0--0-----|------------------------|


                                          
-----------------------------------------|
-----------------------------------------|
------------------------0------------0---|
-------2-4-2----------4---4------------7-|
--7--------------------------------------|
--0-0--0-0-0-0--0--0--0-0-0-0--0--0--0-0-|


                                               
--3----------------3--------------------------|
-------------------1----------------0---------|
--0----------------0---------------------0----|
----------------------------------------------|
-------------------3----------------2---------|
--0-0--0--0--0--0--0-0--0--0--0--0--0-0----0--|


                                           
------------------------------------------|
------------------------------------------|
------------------------0------------5----|
--2----2-4-2----------4---4------------10-|
------------------------------------------|
--0-0--0-0-0-0--0--0--0-0-0-0--0--0--0-0--|


                                              
---------------------------------------------|
-------------------------3---------3---------|
-------------------------0---------2---------|
-------------------------0---------0-0--0--0-|
---------------------------------------------|
--0-0--0--0--0--0--0--0--3-3--3--3-----------|


                                          
-----------------------------------------|
-----------------------------------------|
------------------------0------------0---|
--2----2-4-2----------4---4------------7-|
-----------------------------------------|
--0-0--0-0-0-0--0--0--0-0-0-0--0--0--0-0-|


                                               
--3-------------------------------------------|
-------------------1----------------0---------|
--0----------------0---------------------0----|
----------------------------------------------|
-------------------3----------------2---------|
--0-0--0--0--0--0--0-0--0--0--0--0--0-0----0--|


                                                            
-------------------------------------1--|------------------|
-------------------------------------1--|------------------|
-------0---0------------0---------------|------------------|
--2------7------------4---4----------3--|------------------|
-------------------------------------3--|------------------|
--0-0--0-0-0-0--0--0--0-0-0-0--0--0--1--|------------------|


                                                           
-----------------------------|----------------------------|
--3--3--3-----3-----3-----3--|----3--3--3--3--3--3-----3--|
-----------------------------|----------------------------|
--0--0--0-----0-----0-----0--|----0--0--0--0--0--0-----0--|
-----------------------------|----------------------------|
-----------------------------|----------------------------|


                                                                 
-----------------------------|----------------------------------|
--1--1--1-----1-----1-----1--|----1--1--1--1--1--1--1--1--1--1--|
-----------------------------|----------------------------------|
-----------------------------|----------------------------------|
--3--3--3-----3-----3-----3--|----3--3--3--3--3--3--3--3--3--3--|
-----------------------------|----------------------------------|


                                                                 
-----------------------------|----------------------------------|
--3--3--3-----3-----3-----3--|----3--3--3--3--3--3--3--3--3--3--|
-----------------------------|----------------------------------|
--0--0--0-----0-----0-----0--|----0--0--0--0--0--0--0--0--0--0--|
-----------------------------|----------------------------------|
-----------------------------|----------------------------------|


                                                             
------------------|-------------------|--5------7------5----|
------------------|-------------------|--7------8------7----|
------------------|--0----------------|---------0-----------|
------------------|-------------------|--7------9------7----|
------------------|--3----------------|--9-------------9----|
------------------|-------------------|---------------------|


                                                             
-------0-------------|------------------|-------------------|
--7----8-------------|------------------|-------------------|
--7----0--7----------|------------------|-------------------|
--0-------7----------|------------------|--2----------------|
--9----7--5----------|------------------|--2----------------|
---------------------|------------------|--0----------------|


                                                                       
--------------------------|---------------------|---------------------|
--------------------------|----------3----------|----------3----------|
--------------------------|------0--------------|------2--------------|
--2--2--2--2--2--2--2--2--|---------------------|--0------------------|
--2--2--2--2--2--2--2--2--|--3------------------|---------------------|
--0--0--0--0--0--0--0--0--|---------------------|---------------------|


                                                                     
----------------------|----------------------|----------------------|
-----------3----------|-----------3----------|-----------3----------|
--------0-------------|--------0-------------|--------0-------------|
-----4----------------|-----4----------------|-----4----------------|
--2-------------------|--3-------------------|--3-------------------|
----------------------|----------------------|----------------------|


                                                                
----------------------|---------------------|------------------|
-----------3----------|---------3------1----|------------------|
--------0-------------|--0------2------0----|------------------|
--0--4----------------|--0------0-----------|------------------|
----------------------|----------------3----|------------------|
----------------------|--3------------------|------------------|


                                                              
-------------------|-----------------------------------------|
--1----------------|-----------------------------------------|
--0----------------|------------------------0------------0---|
-------------------|--2----2-4-2----------4---4------------7-|
--3----------------|-----------------------------------------|
-------------------|--0-0--0-0-0-0--0--0--0-0-0-0--0--0--0-0-|


                                               
--3----------------3--------------------------|
-------------------1----------------0---------|
--0----------------0---------------------0----|
----------------------------------------------|
-------------------3----------------2---------|
--0-0--0--0--0--0--0-0--0--0--0--0--0-0----0--|


                                           
------------------------------------------|
-------------------------------------0----|
------------------------0-----------------|
--2----2-4-2----------4---4------------10-|
------------------------------------------|
--0-0--0-0-0-0--0--0--0-0-0-0--0--0--0-0--|


                                              
---------------------------------------------|
-------------------------3---------3---------|
-------------------------0---------2---------|
-------------------------0---------0-0--0--0-|
---------------------------------------------|
--0-0--0--0--0--0--0--0--3-3--3--3-----------|


                                          
-----------------------------------------|
-----------------------------------------|
------------------------0------------0---|
--2----2-4-2----------4---4------------7-|
-----------------------------------------|
--0-0--0-0-0-0--0--0--0-0-0-0--0--0--0-0-|


                                               
--3----------------3--------------------------|
-------------------1----------------0---------|
--0----------------0---------------------0----|
----------------------------------------------|
-------------------3----------------2---------|
--0-0--0--0--0--0--0-0--0--0--0--0--0-0----0--|


                                           
------------------------------------------|
------------------------------------------|
------------------------0------------5----|
--2----2-4-2----------4---4------------10-|
------------------------------------------|
--0-0--0-0-0-0--0--0--0-0-0-0--0--0--0-0--|


                                              
---------------------------------------------|
-------------------------3---------3---------|
-------------------------0---------2---------|
-------------------------0---------0-0--0--0-|
---------------------------------------------|
--0-0--0--0--0--0--0--0--3-3--3--3-----------|


                                          
-----------------------------------------|
-----------------------------------------|
------------------------0------------0---|
--2----2-4-2----------4---4------------7-|
-----------------------------------------|
--0-0--0-0-0-0--0--0--0-0-0-0--0--0--0-0-|


                                               
--3----------------3--------------------------|
-------------------1----------------0---------|
--0----------------0---------------------0----|
----------------------------------------------|
-------------------3----------------2---------|
--0-0--0--0--0--0--0-0--0--0--0--0--0-0----0--|


                                           
-------0-2-0----------2-3-2----------7-8--|
-------------------------------------0----|
------------------------0-----------------|
--2----2-4-2----------4---4------------10-|
------------------------------------------|
--0-0--0-0-0-0--0--0--0-0-0-0--0--0--0-0--|


                                              
--7------------------------------------------|
--0----------------------3---------3---------|
-------------------------0---------2---------|
-------------------------0---------0-0--0--0-|
---------------------------------------------|
--0-0--0--0--0--0--0--0--3-3--3--3-----------|		   
AcordesyTabs.com © 2008 Acordes y Tablaturas para guitarra. Tabs and Chords for guitar. Aviso Legal - Contacto
El uso de este sitio está sujeto a la aceptación de los términos y condiciones (27 usuarios online)