tablaturas, partituras y acordes para guitarra
Busca por banda/artista:
 
y/o título de la canción:
A B C D E F G H I J K L M N O P Q R S T U V W X Y Z 0 1 2 3 4 5 6 7 8 9 / Top 100 tabs
Categorías
Usuarios
usuario:
Darse de alta
password:
Artistas más visitados
Publicidad
TOP acordes y tablaturas de Jackson


Estás en: Inicio > Letra J > Acordes y tablaturas de Jackson > Give me one more chance
Give me one more chance
de Jackson
Puntúa este acorde/tab:      
(0.9/5)
Reportar este acorde/tab
  Añadir a tus favoritos
  Imprimir
Intro:
G|-----------------------------------------------------------------
D|---------------3-------------------1-2-3-------------------1-----
A|---------3-4-6---4-------1-3-4---4---------3---4-------1---------
E|-4-------------------------------------------------4-----------4-

G|-----------------------------------------------------------------
D|---------------3-------------------1-2-3-------------------1-----
A|---------3-4-6---4-------1-3-4---4---------3---4-------1---------
E|-4-------------------------------------------------4-----------4-

G|-------------------------------------------------------------
D|---3-6-3-6-3-6---6-5---5-3-3---------------------------------
A|-6---------------------------6---3-6-3-6-4---4-3---3-1-1-3---
E|-------------------------------------------------------------

G|-----------------------------------------------
D|---1-2-3-------------------1-----------6-3-6---
A|-4---------3---4-------1-------------6-------6-
E|-------------------4-----------4---4-----------

Base:
G|-------------------------------------------------------------------------------
D|---------------3-------------------1-2-3-------------------1---------3-6-3-6-3-
A|---------3-4-6---4-------1-3-4---4---------3---4-------1-----------6-----------
E|-4-------------------------------------------------4-----------4---------------

G|-------------------------------------------------------------------------------
D|---------------3-------------------1-2-3-------------------1---------3-6-3-6-3-
A|---------3-4-6---4-------1-3-4---4---------3---4-------1-----------6-----------
E|-4-------------------------------------------------4-----------4---------------

Refrão:
G|---------------------------------------------------------------6-------------------
D|-6---6-5---5-3-3---------------------------------1-2-3---------------------1-------
A|-----------------6---3-6-3-4---4-3---3-1-1-3---4---------3---4---4-----1-----------
E|-------------------------------------------------------------------4-----------4---

G|-----------------------------------------------------------------------------------------
D|---3-6-3-6-3-6---6-5---5-3-3---------------------------------1-2-3-------------------1---
A|-6---------------------------6---3-6-3-4---4-3---3-1-1-3---4---------3---4-------1-------
E|-----------------------------------------------------------------------------4-----------

Passagem 1:
G|---------------------------------------------------------
D|---------------------------------------------------------
A|---------------------------------------------------------
E|-1-4-1-4-------1-4-1-4-------1-4-1-4-------1-4-1-4-------

Refrão 2:
G|-----------------------------6---------------------------------6-------------------
D|-6---6-5---5-3-3---------------------------------1-2-3---------------------1-------
A|-----------------6---3-6-3-4---4-3---3-1-1-3---4---------3---4---4-----1-----------
E|-------------------------------------------------------------------4-----------4---

G|---------------------------------------------------------------------------6---------------
D|---3-6-3-6-3-6---6-5---5-3-3---------------------------------1-2-3---------------------1---
A|-6---------------------------6---3-6-3-4---4-3---3-1-1-3---4---------3---4---4-----1-------
E|-------------------------------------------------------------------------------4-----------

G|---------------------------------------------------------------------------------
D|---3-6-3-6-3-6---6-5---5-3-3---------------------------------1-2-3---------------
A|-6---------------------------6---3-6-3-4---4-3---3-1-1-3---4---------3---4-------
E|-----------------------------------------------------------------------------4---

Passagem 2:
G|--------------------------------------------------
D|-------------------6--------6--------6--------6---
A|-----------------6---4----6--------6---4----6-----
E|------------------------------4-----------------4-

G|-----------------------------------------------------------
D|---6----------6--------6----------6----------6--------6----
A|-6---6-3----6---4----6------3/4-6---6-3----6---4----6------
E|-------------------------4------------------------------4--

G|-------------------------------------------------------------------------
D|-------6----------6--------6----------6----------6--------6----------6---
A|-3/4-6---6-3----6---4----6------3/4-6---6-3----6---4----6------3/4-6---6-
E|-----------------------------4------------------------------4------------

G|---------------------------------------------------------------6-------------------
D|-6---6-5---5-3-3---------------------------------1-2-3---------------------1-------
A|-----------------6---3-6-3-4---4-3---3-1-1-3---4---------3---4---4-----1-----------
E|-------------------------------------------------------------------4-----------4---

Final:
G|-------------------------------------
D|-------------------------------3-6-3-
A|-----------------------------6-------
E|----1-4-1-4-------1-4-1-4------------

G|-----------------------------6---------------------------------6---------------
D|-6---6-5---5-3-3---------------------------------1-2-3-----------6---------1---
A|-----------------6---3-6-3-4---4-3---3-1-1-3---4---------3---4---------1-------
E|-------------------------------------------------------------------4-----------		   
AcordesyTabs.com © 2008 Acordes y Tablaturas para guitarra. Tabs and Chords for guitar. Aviso Legal - Contacto
El uso de este sitio está sujeto a la aceptación de los términos y condiciones (54 usuarios online)