tablaturas, partituras y acordes para guitarra
Busca por banda/artista:
 
y/o título de la canción:
A B C D E F G H I J K L M N O P Q R S T U V W X Y Z 0 1 2 3 4 5 6 7 8 9 / Top 100 tabs
Categorías
Usuarios
usuario:
Darse de alta
password:
Artistas más visitados
Publicidad
TOP acordes y tablaturas de Bon jovi


Estás en: Inicio > Letra B > Acordes y tablaturas de Bon jovi > I'll be there for you
I'll be there for you
de Bon jovi
Puntúa este acorde/tab:      
(0.9/5)
Reportar este acorde/tab
  Añadir a tus favoritos
  Imprimir
INTRO:  --0----0--0----0--0----0--0-------0-- | 
      --1/3--3--3/5--5--5/8--8--8--8/7--7-- |       
        ------------------------------------- | 
      ------------------------------------- | 
        ------------------------------------- | 
      ------------------------------------- | 

      --0----0--0----0--0----0--0---------- | 
      --1/3--3--3/5--5--5/8--8--7---------- |             
      ------------------------------------- | 
      ------------------------------------- | 
        ------------------------------------- | 
        ------------------------------------- | 


                                 Em
I guess this time you're really leaving
G                              D
I hear your suitcase say good-bye
                             Em
and as my broken heart lies bleeding
G                         D
you say true love is sui-cide.
                              Em
You say you cried a thousand rivers
G                                D
and now you're swimming for the shore
D                           Em
you left me drowning in my tears
G                          A
and you won't save me any-more.

I'm praying to God you'll give me one more chance girl.

CHORUS:
D
I'll be there for you
Bm
these five words I swear to you
          Gm
when you breathe I wanna be the air for you
A9       C     G    D
I'll be there  for you.
D
I'd live and I'd die for you
Bm
I'd steal the sun from the sky for you
G
words can't say what love can do
A9       C     G   D
I'll be there for you.       [guitar the same as INTRO]

I know you we've had some good times

now they have thir own hiding place

I can promise you tomorrow

but I can't buy back yesterday.
                                     G                                        A
And baby you know my hands are dirty    (and baby you know my hands are dirty)
                                 G  Em
but I wanted to be your valenti-ne 
                                G
I'll be the water when you get thirsty baby
                                   A
when you get drunk I'll be the wi-ne. (Jon's scream )

CHORUS

And I wasn't there when you where happy

and I wasn't there when you were down, down down

I didn't mean to miss your birthday baby

I wish I'd seen you blow those candles out.

CHORUS

tem uma parte que os arcordes mudam durante o chorus , elas ficam assim: 
E
I'll be there for you
C#m
these five words I swear to you
           A9
when you breathe I wanna be the air for you
B9        D9   A9   E
I'll be there  for you.
E
I'd live and I'd die for you
C#m
I'd steal the sun from the sky for you
A9
words can't say what love can do
B9   D9        A9  E
I'll be there for you.       [AI VEM O OUTRO]
        

        --0----0--0----0--0---- 0---0---0-----0-- | 
      --3/5--5--5/7--7--7/10--10--10--10/9--9-- |       
        ----------------------------------------- | 
      ----------------------------------------- | 
        ----------------------------------------- | 
        ----------------------------------------- |  
        
        --0----0--0----0--0---- 0---0-----0------ | 
      --3/5--5--5/7--7--7/10--10--10----9------ |       
        ----------------------------------------- | 
      ----------------------------------------- | 
        ----------------------------------------- | 
        ----------------------------------------- |   		   
AcordesyTabs.com © 2008 Acordes y Tablaturas para guitarra. Tabs and Chords for guitar. Aviso Legal - Contacto
El uso de este sitio está sujeto a la aceptación de los términos y condiciones (26 usuarios online)