tablaturas, partituras y acordes para guitarra
Busca por banda/artista:
 
y/o título de la canción:
A B C D E F G H I J K L M N O P Q R S T U V W X Y Z 0 1 2 3 4 5 6 7 8 9 / Top 100 tabs
Categorías
Usuarios
usuario:
Darse de alta
password:
Artistas más visitados
Publicidad
TOP acordes y tablaturas de 3 Doors Down


Estás en: Inicio > Letra 3 > Acordes y tablaturas de 3 Doors Down > Duck And Run Intro
Duck And Run Intro
de 3 Doors Down
Puntúa este acorde/tab:      
(0.8/5)
Reportar este acorde/tab
  Añadir a tus favoritos
  Imprimir
***Acoustic Guitar tuned to Em (EBEGBE)***

e:------------------------------------------------------------------------------
B:------------------------------------------------------------------------------
G:----9----9--9--9--9--9--9--9--12--12--12--11----9---- 5----5--5--5--5--5--4--
D:----0----0--0--0--0--0--0--0---0---0---0---0----0---- 0----0--0--0--0--0--0--
A:------------------------------------------------------------------------------
E:------------------------------------------------------------------------------

e:------------------------------------------------------------------------------
B:------------------------------------------------------------------------------
G:-5--5--5--7--7-----9----9--9--9--9--9--12--12--12--12--11--11--11--14----5---
D:-0--0--0--0--0-----0----0--0--0--0--0----0---0---0---0---0---0---0---0----0---
A:------------------------------------------------------------------------------
E:------------------------------------------------------------------------------

e:------------------------------------------------------------------------------
B:------------------------------------------------------------------------------
G:--5--5--5--5--5--4----4--4--5--5--5--7--7-------------------------------------
D:--0--0--0--0--0--0----0--0--0--0--0--0--0-------------------------------------
A:------------------------------------------------------------------------------
E:------------------------------------------------------------------------------


		   
AcordesyTabs.com © 2008 Acordes y Tablaturas para guitarra. Tabs and Chords for guitar. Aviso Legal - Contacto
El uso de este sitio está sujeto a la aceptación de los términos y condiciones (57 usuarios online)