tablaturas, partituras y acordes para guitarra
Busca por banda/artista:
 
y/o título de la canción:
A B C D E F G H I J K L M N O P Q R S T U V W X Y Z 0 1 2 3 4 5 6 7 8 9 / Top 100 tabs
Categorías
Usuarios
usuario:
Darse de alta
password:
Artistas más visitados
Publicidad
TOP acordes y tablaturas de Metallica


Estás en: Inicio > Letra M > Acordes y tablaturas de Metallica > Little Boy Youre Going To Hell
Little Boy Youre Going To Hell
de Metallica
Puntúa este acorde/tab:      
(0.3/5)
Reportar este acorde/tab
  Añadir a tus favoritos
  Imprimir
Hi! I know, that it`s not a Metallica song, but I`ve seen tab of this, that comp

Riff 
|--------------------------------|
|--------------------------------|
|--------------------------------|
|-----9------9------9------------|
|-----7------7------7-----5------|
|0-0-0--0-0-0--0-0-0--5-7---7-6-5|
 . . .  . . .  . . .  . . . . . . 


Fill (played 1 time after Riff played 2 times)
|------------------|
|------------------|
|------------------|
|------5--------7--|
|------5--------7--|
|3-3-3-3--5-5-5-5--|
 . . .    . . .     


. = palm muting

Looks like that`s it! Listen for correct timing.
Luke 
rectifier@o2.pl
		   
AcordesyTabs.com © 2008 Acordes y Tablaturas para guitarra. Tabs and Chords for guitar. Aviso Legal - Contacto
El uso de este sitio está sujeto a la aceptación de los términos y condiciones (32 usuarios online)