tablaturas, partituras y acordes para guitarra
Busca por banda/artista:
 
y/o título de la canción:
A B C D E F G H I J K L M N O P Q R S T U V W X Y Z 0 1 2 3 4 5 6 7 8 9 / Top 100 tabs
Categorías
Usuarios
usuario:
Darse de alta
password:
Artistas más visitados
Publicidad
TOP acordes y tablaturas de Foo fighters


Estás en: Inicio > Letra F > Acordes y tablaturas de Foo fighters > Pokey the little puppy
Pokey the little puppy
de Foo fighters
Puntúa este acorde/tab:      
(0.4/5)
Reportar este acorde/tab
  Añadir a tus favoritos
  Imprimir
(Normal Tuning)


Riff 1
e||-----------------------------------------------------------------------||
B||-----------------------------------------------------------------------||
G||-----------------------------------------------------------------------||
D||-----------------------------------------------------------------------||
A||--7-7-7-7-7-7-7-7-7-7-7-7-7-7-7-7-7-3-3-3-3-3-3-3-3-3-3-3-3-3-3-3-3-3--||
E||--5-5-5-5-5-5-5-5-4-4-4-4-4-4-4-4-4-4-4-4-4-4-4-4-4-4-4-4-4-4-4-4-4-4--||


Riff 2
e||------------------------------||
B||------------------------------||
G||------------------------------||
D||--7-x-x-x-x-x---8-7-8--xxx-8--||
A||--7-x-x-x-x-x---8-7-8--xxx-8--||
E||--5-x-x-x-x-x---6-5-6--xxx-6--||


Riff 3
e||----------------------------------------------------------------------------||
B||----------------------------------------------------------------------------||
G||----------------------------------------------------------------------------||
D||--3---3-3-3---2-2-2--2-3-3-3--5-5-5-5--7---7-7-7---6-6-6--7-7-7-7--9-9-9-9--||
A||--3---3-3-3---2-2-2--2-3-3-3--5-5-5-5--7---7-7-7---6-6-6--7-7-7-7--9-9-9-9--||
E||--1---1-1-1---0-0-0--0-1-1-1--3-3-3-3--5---5-5-5---4-4-4--4-5-5-5--7-7-7-7--||		   
AcordesyTabs.com © 2008 Acordes y Tablaturas para guitarra. Tabs and Chords for guitar. Aviso Legal - Contacto
El uso de este sitio está sujeto a la aceptación de los términos y condiciones (22 usuarios online)