tablaturas, partituras y acordes para guitarra
Busca por banda/artista:
 
y/o título de la canción:
A B C D E F G H I J K L M N O P Q R S T U V W X Y Z 0 1 2 3 4 5 6 7 8 9 / Top 100 tabs
Categorías
Usuarios
usuario:
Darse de alta
password:
Artistas más visitados
Publicidad
TOP acordes y tablaturas de Foo fighters


Petrol cb
de Foo fighters
Puntúa este acorde/tab:      
(0.5/5)
Reportar este acorde/tab
  Añadir a tus favoritos
  Imprimir
(½ Step Down Tuning)


Verse
d|------------------------------------------|
A|------------------------------------------|
F|---------------------4b5-(5)-(5)-(5)-4----|
C|--4-4----4-4----4-4--------------------5--|
G|--4-4----4-4----4-4-----------------------|
D|--2-2----2-2----2-2-----------------------|

d|------------------------------------------|
A|------------------------------------------|
F|---------------------4b5-(5)-(5)-(5)-4----|
C|--4-4----4-4----4-4--------------------5--|
G|--4-4----4-4----4-4-----------------------|
D|--2-2----2-2----2-2-----------------------|

d|-------------------------------------------|
A|---------------------------------3---------|
F|---------------------4b5-(5)-(5)---4-4-----|
C|--4-4----4-4----4-4---------------------5--|
G|--4-4----4-4----4-4------------------------|
D|--2-2----2-2----2-2------------------------|

d|------------------------------------------|
A|------------------------------------------|
F|---------------------4b5-(5)-(5)-(5)-4----|
C|--4-4----4-4----4-4--------------------5--|
G|--4-4----4-4----4-4-----------------------|
D|--2-2----2-2----2-2-----------------------|


Chorus
d||----0-0-0---0-0------0-0-0-0-0-0--||
A||----0-0-0---0-0------0-0-0-0-0-0--||
F||----3-3-3---3-3------1-1-1-1-1-1--||
C||--4-4-4-4-4-4-4--2-2-2-2-2-2-2-2--||
G||--4-4-4-4-4-4-4--2-2-2-2-2-2-2-2--||
D||--2-2-2-2-2-2-2--0-0-0-0-0-0-0-0--||


Bridge
d||------0-0-0-0-0-0--0-0-0-0-0-0-0--||
A||------0-0-0-0-0-0--0-0-0-0-0-0-0--||
F||------4-4-4-4-4-4--6-6-6-6-6-6-6--||
C||--5-5-5-5-5-5-5-5--7-7-7-7-7-7-7--||
G||--5-5-5-5-5-5-5-5--7-7-7-7-7-7-7--||
D||--3-3-3-3-3-3-3-3--5-5-5-5-5-5-5--||


Outro
d||-----------0-------0-----|----------0------||
A||---------0---0---0---0---|--------0---0----||
F||-------3-------3-------3-|------3-------3--||
C||--4-4--------------------|-4-4-------------||
G||--4-4--------------------|-4-4-------------||
D||--2-2--------------------|-1-1-------------||
  (3x)		   
AcordesyTabs.com © 2008 Acordes y Tablaturas para guitarra. Tabs and Chords for guitar. Aviso Legal - Contacto
El uso de este sitio está sujeto a la aceptación de los términos y condiciones (39 usuarios online)