tablaturas, partituras y acordes para guitarra
Busca por banda/artista:
 
y/o título de la canción:
A B C D E F G H I J K L M N O P Q R S T U V W X Y Z 0 1 2 3 4 5 6 7 8 9 / Top 100 tabs
Categorías
Usuarios
usuario:
Darse de alta
password:
Artistas más visitados
Publicidad
TOP acordes y tablaturas de Foo fighters


Estás en: Inicio > Letra F > Acordes y tablaturas de Foo fighters > Hey, johnny park!
Hey, johnny park!
de Foo fighters
Puntúa este acorde/tab:      
(0.1/5)
Reportar este acorde/tab
  Añadir a tus favoritos
  Imprimir
Intro
e||-------------------------0------------2-2---0--0--0-|
B||-------------------------0------------3-3---0--0--0-|
G||---------7-6--------7-6--1------------2-2---1--1--1-|
D||--9-9-9------7-7-7-------2------5-5---0-0---2--2--2-|
A||--9-9-9------7-7-7-------2------5-5---0-0---2--2--2-|
D||--9-9-9------7-7-7-------2--2-4-5-5---0-0---2--2--2-|

e|-----------------------0-----------2-2-2-2--||
B|-----------------------0-----------3-3-3-3--||
G|--------7-6-------7-6--1-----------2-2-2-2--||
D|-9-9-9------7-7-7------2------5-5--0-0-0-0--||
A|-9-9-9------7-7-7------2------5-5--0-0-0-0--||
D|-9-9-9------7-7-7------2--2-4-5-5--0-0-0-0--||


Verse
e||--2-2--2--2-2--2--2-2--0-0-0-----------4----------4---------4------||
B||--3-3--3--3-3--3--3-3--2-2-2-----------3----------3---------3------||
G||--4-4--2--4-4--2--4-4--2-2-2-----------4----------4---------4------||
D||--4-4--0--4-4--0--4-4--2-2-2--0-2-0-2----0-2-0-2----0-2-0-2---0-2--||
A||--2-2--0--2-2--0--2-2--0-0-0--0-2-0-2----0-2-0-2----0-2-0-2---0-2--||
E||-------0-------0--------------0-2-0-2----0-2-0-2----0-2-0-2---0-2--||


Chorus
e||------------------2-2---2-2----------------------------------||
B||------------------3-3---3-3----------------------------------||
G||------------------2-2---2-2----------------------------------||
D||------5-5---5-5---0-0---0-0--5-5-5-5-5-5-5-5----3-3-3-3-5-0--||
A||------5-5---5-5---0-0---0-0--3-3-3-3-2-2-2-2----3-3-3-3-5-0--||
E||--2-4-5-5---5-5---0-0---0-0---------------------3-3-3-3-5-0--||


Chorus(Add part)
e|----------------2-2--2-2---------------------------------------------------||
B|----------------3-3--3-3---------------------------------------------------||
G|----------------2-2--2-2---------------------------------------------------||
D|-----5-5---5-5--0-0--0-0--5-5-5-5-5-5-5-5-3-3-3-3-5-0-0-0-5-5-5-5-9-9-9-9--||
A|-----5-5---5-5--0-0--0-0--3-3-3-3-2-2-2-2-3-3-3-3-5-0-0-0-3-3-3-3-7-7-7-7--||
E|-2-4-5-5---5-5--0-0--0-0------------------3-3-3-3-5-0-0-0------------------||


Intro(But different)
e||----------------------4-4-4--------2-----2-----------||
B||----------------------3-3-3--------3-----3-----------||
G||--------7-6-------7-6-4-4-4--------2-----2-----------||
D||--9-9-9-----7-7-7-----2-2-2-----5--0--5--0-----------||
A||--9-9-9-----7-7-7-----2-2-2-----5--0--5--0-----------||
E||--9-9-9-----7-7-7-----2-2-2-2-4-5--0--5--0--5-5-5-4--||


(Last two chords of last chorus)
e||-------------||
B||-------------||
G||-------------||
D||--0-0--5--0--||
A||--0-0--5--0--||
E||--0-0--5--0--||		   
AcordesyTabs.com © 2008 Acordes y Tablaturas para guitarra. Tabs and Chords for guitar. Aviso Legal - Contacto
El uso de este sitio está sujeto a la aceptación de los términos y condiciones (31 usuarios online)