tablaturas, partituras y acordes para guitarra
Busca por banda/artista:
 
y/o título de la canción:
A B C D E F G H I J K L M N O P Q R S T U V W X Y Z 0 1 2 3 4 5 6 7 8 9 / Top 100 tabs
Categorías
Usuarios
usuario:
Darse de alta
password:
Artistas más visitados
Publicidad
TOP acordes y tablaturas de Green day


Estás en: Inicio > Letra G > Acordes y tablaturas de Green day > Blood, sex and booze
Blood, sex and booze
de Green day
Puntúa este acorde/tab:      
(0.4/5)
Reportar este acorde/tab
  Añadir a tus favoritos
  Imprimir
 
Verse palm mute:
---------------             
---------------       
----9----------      Repeat     7
----7----------                 5
----7----------                 5
---------------

Chorus:
I'm in distress oh mistress I confess so do it one more time
----4-------------------------------------------------------
----5-------------------------------------------------------
----6-----------------repeat ----------- 9--------repeat---
----6------------------------------------7------------------
----4------------------------------------7------------------
----4-------------------------------------------------------
these handcuffs are to tight well 

(back to bared chord)-you know I will obey, so please don't 
make me beg (back to power chord) for blood sex & booze you give me.  

sit undisturbed, it's what i deserve, another lesson to be 
----------------------------------------------------------
----------------------------------------------------------
9---------------------7--------------6--------------------
9---------------------5--------------6--------------------
7---------------------5--------------4--------------------
----------------------------------------------------------

learned, from a girl called kill.
--------------------------------
--------------------------------
--5------7---------------------
--5------5---------------------
--3------5---------------------
--------------------------------		   
AcordesyTabs.com © 2008 Acordes y Tablaturas para guitarra. Tabs and Chords for guitar. Aviso Legal - Contacto
El uso de este sitio está sujeto a la aceptación de los términos y condiciones (31 usuarios online)