tablaturas, partituras y acordes para guitarra
Busca por banda/artista:
 
y/o título de la canción:
A B C D E F G H I J K L M N O P Q R S T U V W X Y Z 0 1 2 3 4 5 6 7 8 9 / Top 100 tabs
Categorías
Usuarios
usuario:
Darse de alta
password:
Artistas más visitados
Publicidad
TOP acordes y tablaturas de Angra


Lisbon
de Angra
Puntúa este acorde/tab:      
(0.4/5)
Reportar este acorde/tab
  Añadir a tus favoritos
  Imprimir
Intro

|-----------------------------------|-------------------|--------------|
|-----------------------------------|-------------------|--------------|
|--7777-77-7777-7-7777-7-7777-7-----|-7-5555-55-5555-55-|-5-3333-3-323-|
|---------0------0------0------0-0--|-------------------|--------------|


|-----------------------------------|-------------------|---------------|
|-----------------------------------|-------------------|---------------|Every night....
|--7777-77-7777-7-7777-7-7777-7-----|-7-5555-55-5555-55-|-5-3-3-2-3-2-0~|
|---------0------0------0------0-0--|-------------------|---------------|


 (Vocals)
Stay with me...
|----------------------------------------------------------------------|
|----------------------------------------------------------------------|
|-----------3-3-333-3-0-0-000-0-7-7-777-7-5-5-555-5--5-3-2-0-----0~-0~-|
|-5-5-555-5--------------------------------------------------532---3~--|


 (Bridge)
Lord light my way...
|----------------------------------------------------------------------|
|----------------------------------------------------------------------|
|-777777--7777777-77777-7777-777-777-7-7777-777777777-777-77-777-7-777-|
|----------------------------------------------------------------------|



 (Chorus) Oh!!!!....
|------------------------------------------|xx(2x)xx
|------------------------------------------|xx(2x)xx 
|-0-0-00000----------3-3-3333-0-00-5-3-2-0-|xx(2x)xx
|-----------3-3-33333----------------------|xx(2x)xx



(GuitarSolo)
|------------------------------------------------|
|------------------------------------------------|
|-777777777-777777777-555555555-333333333-22-333-|
|------------------------------------------------|


|--------------------------------------------------|
|--------------------------------------------------|
|-777777777-777777777-555555555-33333333-22-33-2---|
|-----------------------------------------------5--|


 
»»Repeat»

(Chorus)
   x
(Bridge)
   x
(Chorus)(5x)   		   
AcordesyTabs.com © 2008 Acordes y Tablaturas para guitarra. Tabs and Chords for guitar. Aviso Legal - Contacto
El uso de este sitio está sujeto a la aceptación de los términos y condiciones (26 usuarios online)