tablaturas, partituras y acordes para guitarra
Busca por banda/artista:
 
y/o título de la canción:
A B C D E F G H I J K L M N O P Q R S T U V W X Y Z 0 1 2 3 4 5 6 7 8 9 / Top 100 tabs
Categorías
Usuarios
usuario:
Darse de alta
password:
Artistas más visitados
Publicidad
TOP acordes y tablaturas de Green day


Estás en: Inicio > Letra G > Acordes y tablaturas de Green day > The one i want
The one i want
de Green day
Puntúa este acorde/tab:      
(0.1/5)
Reportar este acorde/tab
  Añadir a tus favoritos
  Imprimir
INTRODUÇÃO: E F#


VERSO 1:
B5 
Sitting in my room last night
A9 E
Staring at the mirror
B5 
I couldn't find a reason why
A9 E
I couldn't be near her

PRE-REFRÃO:
C#m7 A9
'Cause you're the one that started
B
To make me feel this way 
C#m7 A9
And every night I'm thinking 
B
About the words you'd say

REFRÃO:
F#
Cause you are the one I want - 4x

VERSO 2:
B5
Pictures going through my mind
A9 E
When we're together
B5
All those long and sleepless night
A9 E
Will I ever get better

SOLO:

e | ---------------------0--0------0--0---0---0---
B | ----------0-0---0-0-4-4--4---4-0-2-2---2/4-4--
G | ----------------------------------------------
D | 4-4-4-4-4-4-4-4-4-4---4-4---------------------
A | 4-4-4-4-4-4-4-4-4-4---4-4---------------------
E | 2-2-2-2-2-2-2-2-2-2---2-2---------------------


e | -0--0-----0--0------------0-------0-------0------
B | -0--0-----0--0--4-4-4-4---4-0-2---2-2/4---0/2----
G | -2--2--2--1--1--1--------------------------------
D | -------------------------------------------------
A | -------------------------------------------------
E | -------------------------------------------------

e | ---0---0-----0---0--------------------------------
B | ----0---0-----0---0---2-0-0-0-0-0-0-0-0-0-0-0-----
G | --2--2---2--2--2---2--0-4-4-4-4-4-4-6-6-6-6-6-----
D | --------------------------------------------------
A | --------------------------------------------------
E | --------------------------------------------------

e | --------------------------------------------------
B | --0---0---0---0---0-0-----0--0--0--0-----0--0-----0--6--0-0-0-0-0--
G | --6-6-0-9-0-6-0-9-9-9-11-11-11-11-11-13-13-13-11-11-11--9-9-9-9-9---
D | --------------------------------------------------
A | --------------------------------------------------
E | --------------------------------------------------

e | ---------------------------------0---0----------
B | --0---0-0-0---0---0-0-0-0-0-0-----0----6--------
G | --9-0-8-8-5-6-6-4-4-4-4-4-4-4-2-2---2----2-1----
D | ------------------------------------------------
A | ------------------------------------------------
E | ------------------------------------------------

e | 0--0--0-0--0------0--0--0-------------------------
B | -0--0----0--0------0--0---0---0-0-0-0-0-0---0---0-
G | 1--1--1-2--2--2-1-1--1--1--4-6-6-6-6-6-6-6-8-8-9-9-11-11-13----
D | --------------------------------------------------
A | --------------------------------------------------
E | --------------------------------------------------

e | ---------------------------- | 
B | ------------------0--0---4-- | 
G | -------------------3--0--4-- | 
D | --4-4-4-4-4-4-4-4---4--4-4-- | 
A | --4-4-4-4-4-4-4-4--------2-- | 
E | --2-2-2-2-2-2-2-2----------- | 

VERSO 3:
B5 
Now you know how I feel
A9 E
This love is forever
B5
You make my life so unreal
A9 E
Will I ever get better...? 

CIFRAS:

Asus2: X 0 2 2
B5 : X 2 4
E : 0 2 2 1 0 0
F# : 2 4 4 		   
AcordesyTabs.com © 2008 Acordes y Tablaturas para guitarra. Tabs and Chords for guitar. Aviso Legal - Contacto
El uso de este sitio está sujeto a la aceptación de los términos y condiciones (28 usuarios online)