tablaturas, partituras y acordes para guitarra
Busca por banda/artista:
 
y/o título de la canción:
A B C D E F G H I J K L M N O P Q R S T U V W X Y Z 0 1 2 3 4 5 6 7 8 9 / Top 100 tabs
Categorías
Usuarios
usuario:
Darse de alta
password:
Artistas más visitados
Publicidad
TOP acordes y tablaturas de System of a down


Estás en: Inicio > Letra S > Acordes y tablaturas de System of a down > Atwa (versão acústica)
Atwa (versão acústica)
de System of a down
Puntúa este acorde/tab:      
(0.4/5)
Reportar este acorde/tab
  Añadir a tus favoritos
  Imprimir
INTRODUÇÂO:

e|---------------------------------------------------|
B|---------------------------3-----------------------|
G|---2-----1-----4-----6-----------6-----4-----2-----|
D|---------------------------------------------------|
G|-----------------------0-2-------------------------|
E|-2---2-0---0-4---0-5---------0-5---0-4---0-2---2-0-|

Nanananana.......nananananana.

Continua tocando a introdução:

Hey you
See me?
Pictures crazy
All the world I've seen before me passing by
I've got nothing to gain, to lose
All the world I've seen before me passing by


Entra com o refrão usando o seguinte riff:

e|----------------|----------------|
B|----------------|----------------|
G|----------------|----------------|
D|-4-4-4-4-4-4-4--|-4-4-4-4-4-4-4--|
A|-4-4-4-4-4-4-4--|-4-4-4-4-4-4-4--|
E|-2-2-2-2-2-2-2--|-2-2-2-2-2-2-2--|

   
REFRÃO (4x):  You dont care about how i fell  
              I dont fell it anymore 

REPETE A INTRODUÇÃO:

e|---------------------------------------------------|
B|---------------------------3-----------------------|
G|---2-----1-----4-----6-----------6-----4-----2-----|
D|---------------------------------------------------|
G|-----------------------0-2-------------------------|
E|-2---2-0---0-4---0-5---------0-5---0-4---0-2---2-0-|

Nananananana.....

Hey you, are me
Not so pretty
All the world I've seen before me passing by
Silent my voice
I've got no choice
All the world I've seen before me passing by

NOVAMENTE O REFRÃO: 

e|----------------|----------------|
B|----------------|----------------|
G|----------------|----------------|
D|-4-4-4-4-4-4-4--|-4-4-4-4-4-4-4--|
A|-4-4-4-4-4-4-4--|-4-4-4-4-4-4-4--|
E|-2-2-2-2-2-2-2--|-2-2-2-2-2-2-2--|

REFRÃO (4x):  You dont care about how i fell  
              I dont fell it anymore 

LOGO APÓS O REFRÃO ENTRA O SEGUINTE RIFF:

      (PARTE 1)          (PARTE2)
e|----------------|  |-----------------|
B|----------------|  |-----------------|
G|----------------|  |-----------------|
D|----------------|  |-2-2-------------|
A|-4-4-4-4-4-4-4--|  |-2-2-------------|
E|-2-2-2-2-2-2-2--|  |-----------------|

(PARTE 1)
I don't see
(PARTE 2)
Anymore
(PARTE 1)
I don't hear
(PARTE 2)
Anymore
(PARTE 1)
I don't speak
(PARTE 2)
Anymore
(PARTE 1)
I don't feel

LOGO APÓS ENTRA COM O SEGUINTE SOLO:

e|--------|--------|--------|--------|--------|--------|--------|
B|--------|--------|--------|--------|--------|--------|--------|
G|--------|--------|--------|--------|--------|--------|--------|
D|-2--2-2-|-6--6-6-|-7--7-7-|-9--9-9-|-7--7-7-|-6--6-6-|-2--2-2-|
G|-2--2-2-|-6--6-6-|-7--7-7-|-9--9-9-|-7--7-7-|-6--6-6-|-2--2-2-|
E|-0--0-0-|-4--4-4-|-5--5-5-|-7--7-7-|-5--5-5-|-4--4-4-|-0--0-0-|

Nananananana...nananana

  (1) (2) (3) (4) (5) (6) (7)
e|---|---|---|---|---|---|---|
B|---|---|---|---|---|---|---|
G|---|---|---|---|---|---|---|
D|-2-|-6-|-7-|-9-|-7-|-6-|-2-|
G|-2-|-6-|-7-|-9-|-7-|-6-|-0-|
E|-0-|-4-|-5-|-7-|-5-|-4-|-0-|

  (1)
Hey you
  (2)
See me?
(3)        (4)
Pictures crazy
   (5)        (6)          (7)           (1)
All the world I've seen before me passing by

 (1)         (2)
I've got nothing 
(3)         (4)
to gain, to lose
(5)           (6)            (7)          (1)
All the world I've seen before me passing by

O REFRÃO MAIS UMA VEZ:

e|----------------|----------------|
B|----------------|----------------|
G|----------------|----------------|
D|-4-4-4-4-4-4-4--|-4-4-4-4-4-4-4--|
A|-4-4-4-4-4-4-4--|-4-4-4-4-4-4-4--|
E|-2-2-2-2-2-2-2--|-2-2-2-2-2-2-2--|

REFRÃO (4x):  You dont care about how i fell  
              I dont fell it anymore 

E FINALMENTE:

   (PARTE 1)          (PARTE2)
e|----------------|  |-----------------|
B|----------------|  |-----------------|
G|----------------|  |-----------------|
D|----------------|  |-2-2-------------|
A|-4-4-4-4-4-4-4--|  |-2-2-------------|
E|-2-2-2-2-2-2-2--|  |-----------------|

(PARTE 1)
I don't sleep
(PARTE 2)
Anymore
(PARTE 1)
I don't eat
(PARTE 2)
Anymore
(PARTE 1)
I don't live
(PARTE 1)
Anymore
(PARTE 1)
I don't feel		   
AcordesyTabs.com © 2008 Acordes y Tablaturas para guitarra. Tabs and Chords for guitar. Aviso Legal - Contacto
El uso de este sitio está sujeto a la aceptación de los términos y condiciones (27 usuarios online)