tablaturas, partituras y acordes para guitarra
Busca por banda/artista:
 
y/o título de la canción:
A B C D E F G H I J K L M N O P Q R S T U V W X Y Z 0 1 2 3 4 5 6 7 8 9 / Top 100 tabs
Categorías
Usuarios
usuario:
Darse de alta
password:
Artistas más visitados
Publicidad
TOP acordes y tablaturas de Cueio limÃo


Simon's song
de Cueio limÃo
Puntúa este acorde/tab:      
(0.6/5)
Reportar este acorde/tab
  Añadir a tus favoritos
  Imprimir
G1 - 1ª Guitarra  G2 - 2ª Guitarra

Riff 1
G1
e | -------------------------------------------------- | 
B | -------------------------------------------------- | 
G | -------------------------------------------------- | 
D | --------4-----------4-----------4--------------- | X2
A | 5-5-5-7---7-5-5-5-7---7-5-5-5-7---7-5-5-5-4-5-7-5- | 
E | -------------------------------------------------- | 

G2

D5 , F#5 , G5 , A5 - X2


1º Verso
D5       F#5
The book, is on the table 
G5                   A5
But I'm felling your love
D5                F#5
What's your name?? I don't no
G5             A5
Because my dog ate, my home work
D5     F#5
Listem , the babe is crying
G5           A5
Inside in my mind

1º Pré Refrão
B5      C#5     D5       E5  D5 C#5
There's nothing left to loose
B5  C#5   D5      E5    A8
The color and the shape

1º Refrão - X2
D5           A5
I like lemon, I like lemon
G5               A5
I like lemon and drink, Flying Horse

Riff 1 - X1

2º Verso - Guitarra Para d toka

Let's talk about fellings

And talk about your feet.

I caugth two chairs, and went away,

For hunt rabbits, every day. 

Aki começa a toka d novo, abafando
D5                F#5
A day in the life, a day in the light
G5                 A5
A day in the night, a day in the box

2º Pré Refrão
B5    C#5     D5      E5
And I lost my Simon's CD
B       C#5       D5       E5  A8
And you lost your head for me 

2º Refrão
D5           A5
I like lemon, I like lemon
G5               A5
I like lemon and drink, Flingy Horse
D5             A5
I like fishing, I like fishing
G5                A5
I like fishing and listen, Simon's Song...

Final - G1
e | ----------------------------------------------- | 
B | --------7-----------7-----------7-------------- | 
G | 7-7-7-9---9-7-7-7-9---9-7-7-7-9---9-7-7-7-6-9-7 | X3
D | ----------------------------------------------- | 
A | ----------------------------------------------- | 
E | ----------------------------------------------- | 

G2 - X3

D5 , A5 , G5 , A5 		   
AcordesyTabs.com © 2008 Acordes y Tablaturas para guitarra. Tabs and Chords for guitar. Aviso Legal - Contacto
El uso de este sitio está sujeto a la aceptación de los términos y condiciones (67 usuarios online)