tablaturas, partituras y acordes para guitarra
Busca por banda/artista:
 
y/o título de la canción:
A B C D E F G H I J K L M N O P Q R S T U V W X Y Z 0 1 2 3 4 5 6 7 8 9 / Top 100 tabs
Categorías
Usuarios
usuario:
Darse de alta
password:
Artistas más visitados
Publicidad
TOP acordes y tablaturas de Metallica


Estás en: Inicio > Letra M > Acordes y tablaturas de Metallica > Master Of Puppets Slow Solo
Master Of Puppets Slow Solo
de Metallica
Puntúa este acorde/tab:      
(0.3/5)
Reportar este acorde/tab
  Añadir a tus favoritos
  Imprimir
Master Of Puppets by Metallica

2 guitars(Kirk Hammett and James Hetfield)

E ----19-15----17--------------17-14----15-12-------------
B -17-------17----15--15-15-15-------15-------13--13-13-13
G --------------------------------------------------------

continued
E -15-12----14-12-14-12-11-------------------11-12-14
B -------13----------------13-12-13-15-13-15---------
G ---------------------------------------------------    2x

solo(James Hetfield)

E -----------15----15-17----19-15-12---
B -17--17-19----19-------19----------13
G -------------------------------------

E -------15-14----15-14-----------------------------------
B -15-15-------12-------12--------------------------------
G -------------------------12-14-12--15-14-12----12-------
D --------------------------------------------14----14--12

E ---------------------------------------------------------
B ---------------------------------------------------------
G -12-12h14p12-11----14-12-11--------------------9-10-12-10
D ----------------12----------10--7-9-10-9-10-12-----------

E -15-11h12p11---------
B -------------12-10-17
G ---------------------

Now play beginning riff up top 2x
		   
AcordesyTabs.com © 2008 Acordes y Tablaturas para guitarra. Tabs and Chords for guitar. Aviso Legal - Contacto
El uso de este sitio está sujeto a la aceptación de los términos y condiciones (37 usuarios online)