tablaturas, partituras y acordes para guitarra
Busca por banda/artista:
 
y/o título de la canción:
A B C D E F G H I J K L M N O P Q R S T U V W X Y Z 0 1 2 3 4 5 6 7 8 9 / Top 100 tabs
Categorías
Usuarios
usuario:
Darse de alta
password:
Artistas más visitados
Publicidad
TOP acordes y tablaturas de Metallica


Estás en: Inicio > Letra M > Acordes y tablaturas de Metallica > Master Of Puppets Solo
Master Of Puppets Solo
de Metallica
Puntúa este acorde/tab:      
(0.7/5)
Reportar este acorde/tab
  Añadir a tus favoritos
  Imprimir
song: master of puppets
band: metallica
tabbed by jeffrey h.(y2jc_28@yahoo.com)
                hey, this is the solo after the coda &
it is incomplete but it sure is right so if you guys can
fill in the missing part then that would be great. Enjoy!
solo:(heavy distortion)
e-----------14----------------14------------
b--17-17--17--16----------------16--17------
g-------16------16b.v.---16-16----16--18--14
d-------------------------------------------
a-------------------------------------------
e-------------------------------------------

e---------------------
b-------17-----16-----
g--14-14--18-14--14-13
d---------------------
a---------------------
e---------------------

e--------------------------
b----------------------17--
g--14-13-14-16-14-18-19--18
d--------------------------
a--------------------------
e--------------------------
(repeat this solo one more time and then comes
the part i don't know)
that's all

notations:
b.v.- bend & vibrate at the same time


		   
AcordesyTabs.com © 2008 Acordes y Tablaturas para guitarra. Tabs and Chords for guitar. Aviso Legal - Contacto
El uso de este sitio está sujeto a la aceptación de los términos y condiciones (42 usuarios online)