tablaturas, partituras y acordes para guitarra
Busca por banda/artista:
 
y/o título de la canción:
A B C D E F G H I J K L M N O P Q R S T U V W X Y Z 0 1 2 3 4 5 6 7 8 9 / Top 100 tabs
Categorías
Usuarios
usuario:
Darse de alta
password:
Artistas más visitados
Publicidad
TOP acordes y tablaturas de The ataris


Estás en: Inicio > Letra T > Acordes y tablaturas de The ataris > My hotel year
My hotel year
de The ataris
Puntúa este acorde/tab:      
(0.3/5)
Reportar este acorde/tab
  Añadir a tus favoritos
  Imprimir
Verse:
Guitar 1 
e|---------------------------------------------------------|
B|---------------------------------------------------------|
G|--7---------------------12-----7-7-7-7--------12-|
D|--7------4---5----------12-----7-7-7-7-4--5---12-|
A|--5------4---5----------10-----5-5-5-5-4--5---10-|
E|---------2---3---------------------------------2--3------|

Guitar 2 (Play verse same as guitar 1 but add the thing at the end...)
e|--------------------------------------------------------------|
B|--------------------------------------------------------------|
G|------------------------------------------------------12-11-9-|
D|--------------------------------------------------------------|
A|------------------------------------------------------10-9--7-|
E|--------------------------------------------------------------|

Chorus:x2

Guitar 1
e|-----------------------------------------------|
B|-----------------------------------------------|
G|--7--------------------------------------------|
D|--7-----8----9----7---5------------------------|
A|--5-----8----9----7---5------------------------|
E|--------6----7----5---3------------------------|
Guitar 2
e|-----------------------------------------------|
B|-----------------------------------------------|
G|--7-------------------7--12-11--9--7---14--12--|
D|--7-----8----9----7----------------------------|
A|--5-----8----9----7---5--10-9---7--5---12--10--|
E|--------6----7----5----------------------------|

Outro Verse:
(1 Guitar only)
e|---------------------------------------------------------------------
B|---------------------------------------------------------------------
G|---------------------------------------------------------------------
D|--7-7-7-xxx-9-9-9-xxx-5-5-5-xxx-5-5-5-xxx----------------------------
A|--7-7-7-xxx-9-9-9-xxx-5-5-5-xxx-5-5-5-xxx----------------------------
E|--5-5-5-xxx-7-7-7-xxx-3-3-3-xxx-3-3-3-xxx----------------------------

e|----------------------------------------------------------|
B|----------------------------------------------------------|
G|----------------------------------------------------------|
D|--7-7-7-xxx-9-9-9-xxx-5m-5m-5m-7m-7m-7m-5m-5m-5m-7m-7m-7m-|
A|--7-7-7-xxx-9-9-9-xxx-5m-5m-5m-7m-7m-7m-5m-5m-5m-7m-7m-7m-|
E|--5-5-5-xxx-7-7-7-xxx-3m-3m-3m-5m-5m-5m-3m-3m-3m-5m-5m-5m-|

Outro Riff:

Guitar 1
e|------|
B|------|   Repeat a bunch of times
G|--7-|
D|--7-|
A|--5-|
E|------|

Guitar 2
e|-----------------------------------------------------------|
B|-----------------------------------------------------------|
G|--7---------9----11--12--15	/14--12	/15--15------------|
D|------------------------------------------------slide down-|
A|--5---------7----9---10--139-/12--109-/13--13------------|
E|-----------------------------------------------------------|

  Guitar 1: A-B-G-D		   
AcordesyTabs.com © 2008 Acordes y Tablaturas para guitarra. Tabs and Chords for guitar. Aviso Legal - Contacto
El uso de este sitio está sujeto a la aceptación de los términos y condiciones (26 usuarios online)