tablaturas, partituras y acordes para guitarra
Busca por banda/artista:
 
y/o título de la canción:
A B C D E F G H I J K L M N O P Q R S T U V W X Y Z 0 1 2 3 4 5 6 7 8 9 / Top 100 tabs
Categorías
Usuarios
usuario:
Darse de alta
password:
Artistas más visitados
Publicidad
TOP acordes y tablaturas de Bon jovi


Estás en: Inicio > Letra B > Acordes y tablaturas de Bon jovi > Memphis lives in me (performed by david)
Memphis lives in me (performed by david)
de Bon jovi
Puntúa este acorde/tab:      
(0.5/5)
Reportar este acorde/tab
  Añadir a tus favoritos
  Imprimir
(Intro)
I think this is the way that piano sounds like.
Eu acho que o piano é tocado dessa forma. 
   A          Bm7       C#m7   D      A      D   E
e | ---------- | --------- | ------ | -2-0-- | ------- | --- | --- | 
B | -2---2-0-2 | -3--3-2-3 | -5--5- | -3-3-3 | -2--2-- | -3- | -0- | 
G | -2---2-2-2 | -2--2-2-2 | -4--4- | -----2 | -2--2-- | -2- | -1- | 
D | -2-2------ | -4-4----- | -6-6-6 | -0---- | -2-2--2 | -0- | -2- | 
A | -0-------- | -2------- | -4---- | ------ | -0----- | --- | --- | 
E | ---------- | --------- | ------ | ------ | ------- | --- | -0- | 

   A     Dsus2 A
e | ------ | ---- | -------- | 
B | -2---2 | -3-- | -2---2-- | 
G | -2--2- | -2-- | -2--2-2- | 
D | -2-2-- | -0-- | -2-2---2 | 
A | -0---- | ---- | -0------ | 
E | ------ | ---- | -------- | 

   A          Bm7       C#m7   D      A      D   E
e | ---------- | --------- | ------ | -2-0-- | ------- | --- | --- | 
B | -2---2-0-2 | -3--3-2-3 | -5--5- | -3-3-3 | -2--2-- | -3- | -0- | 
G | -2---2-2-2 | -2--2-2-2 | -4--4- | -2---2 | -2--2-- | -2- | -1- | 
D | -2-2------ | -4-4----- | -6-6-6 | -0---- | -2-2--2 | -0- | -2- | 
A | -0-------- | -2------- | -4---- | ------ | -0----- | --- | --- | 
E | ---------- | --------- | ------ | ------ | ------- | --- | -0- | 

   A      Bm7     C#m7   D      
e | ------- | ------ | ------ | -3- | 
B | -2--0-2 | -3-2-3 | -5--5- | -2- | 
G | -2--2-2 | -2-2-2 | -4-7-- | -3- | 
D | -2----- | -4---- | -6---- | -0- | 
A | -0----- | -2---- | -4---- | --- | 
E | ------- | ------ | ------ | --- | 

 
(Intro - just the chords - apenas os acordes)
A  Bm7  C#m7  D  A  D   E  A  D9 A

A  Bm7  C#m7  D  A  D   E

A  Bm7  C#m7  


(VERSE)
D                     A       ( A/G# )
There's a town that I call home
F#m           D                      A
Where all the streets are paved with soul


D
Down on Beale there's a honky-tonk bar
E
So hear the wail of a blues guitar
F#m                                       G
Have a beer and drop a dime in the blind man's jar


A            Bm7               C#m7           D   
The blues sing softly in the air like a Sunday morning prayer
A/C#                     Bm7       E   A         D9 A
Just one more drink and you'll see God everywhere
A              Bm7  C#m7                     D        
Like a sad old melody that cheers you up, it sets you free
A/C#       Bm7    E        A  Bm7  C#m7  D  E
That's how Memphis lives in me

((CHORUS))
F#m
There comes a time when muddy waters run rough
E/G#
There comes a point when a man has had enough
A                          D          D/C#
Like a friend that always stands by me
Bm        
Memphis knows me
A/C#
Never showed me 
D                 E       
How did life just had to be

((VERSE))
A          Bm7      C#m7          D
I couldn't even try to run away, say goodbye
A/C#               Bm7  E    A           D9  A
Here I was born and here is where I'll die


A                   Bm7
I'm just a man from Tennessee 
C#m7             D
I can't be what I can't be
A/C#         Bm7      E       A  D9  A
All I know is Memphis lives in me
A                         Bm7
I said I'm just a man from Tennessee
C#m7          D
Can't be what I can't be
A/C#          Bm7     E
All I know is Memphis lives
A/C#          Bm7     E
All I know is Memphis gives
A/C#          Bm7     E       A
All I know is Memphis lives in me 		   
AcordesyTabs.com © 2008 Acordes y Tablaturas para guitarra. Tabs and Chords for guitar. Aviso Legal - Contacto
El uso de este sitio está sujeto a la aceptación de los términos y condiciones (18 usuarios online)