tablaturas, partituras y acordes para guitarra
Busca por banda/artista:
 
y/o título de la canción:
A B C D E F G H I J K L M N O P Q R S T U V W X Y Z 0 1 2 3 4 5 6 7 8 9 / Top 100 tabs
Categorías
Usuarios
usuario:
Darse de alta
password:
Artistas más visitados
Publicidad
TOP acordes y tablaturas de Steve vai


Estás en: Inicio > Letra S > Acordes y tablaturas de Steve vai > The crying machine
The crying machine
de Steve vai
Puntúa este acorde/tab:      
(0.6/5)
Reportar este acorde/tab
  Añadir a tus favoritos
  Imprimir
e-15br15br15br15br15br15br15br15br15br----------------------------------------------------------- 
B---------------------------------------10h12-10h12-10----10-12-10~~--10-10---------------------- 
G------------------------------------------------------12-------------------12-11-12-11-9~~------ 
D------------------------------------------------------------------------------------------------ 
A------------------------------------------------------------------------------------------------ 
E------------------------------------------------------------------------------------------------ 
 
e------------------------------------------------------------------------------------------------ 
B-10h12-10h12-10----10-12-10~~---10-10-10-12-13-12/...--10h12-10h12-10----10-12-10~~------------- 
G----------------12----------------------------------------------------12------------------------ 
D------------------------------------------------------------------------------------------------ 
A------------------------------------------------------------------------------------------------ 
E------------------------------------------------------------------------------------------------ 
 
e------------------------------------------------------------------------------------------------ 
B--10-10------------------------------10h12-10h12-10----10-12-12br10-10-10-10-12-13-12-13b------- 
G--------12-11-12p11p9--11p9----9--------------------12------------------------------------------ 
D----------------------------12---10------------------------------------------------------------- 
A------------------------------------------------------------------------------------------------ 
E------------------------------------------------------------------------------------------------ 
 
e-------------------------------------11-9-------------------12-11-------12-14/16-14------------- 
B-12-10-9-------/9-12-11--------11/12-------12-11-9----12/14-------12---------------------------- 
G---------11-9-----------11-------------------------11----------------11------------------------- 
D---------------------------11------------------------------------------------------------------- 
A------------------------------------------------------------------------------------------------ 
E------------------------------------------------------------------------------------------------ 
 
e-17b(19)r-17b(19)r-17-15-17-17b(19)r-17--17-17-15-14-15-14-12h14p129h12------------------------ 
B-------------------------------------------------------------------------12--------------------- 
G------------------------------------------------------------------------------------------------ 
D------------------------------------------------------------------------------------------------ 
A------------------------------------------------------------------------------------------------ 
E------------------------------------------------------------------------------------------------ 
 
e-17b(19)r-17b(19)r-17-15-17b(19)b(20)r-17--17-17-17-19-20-19~~~~21b(22)b(23)-------------------- 
B------------------------------------------------------------------------------------------------ 
G------------------------------------------------------------------------------------------------ 
D------------------------------------------------------------------------------------------------ 
A------------------------------------------------------------------------------------------------ 
E------------------------------------------------------------------------------------------------		   
AcordesyTabs.com © 2008 Acordes y Tablaturas para guitarra. Tabs and Chords for guitar. Aviso Legal - Contacto
El uso de este sitio está sujeto a la aceptación de los términos y condiciones (20 usuarios online)