tablaturas, partituras y acordes para guitarra
Busca por banda/artista:
 
y/o título de la canción:
A B C D E F G H I J K L M N O P Q R S T U V W X Y Z 0 1 2 3 4 5 6 7 8 9 / Top 100 tabs
Categorías
Usuarios
usuario:
Darse de alta
password:
Artistas más visitados
Publicidad
TOP acordes y tablaturas de Mark knopfler


Estás en: Inicio > Letra M > Acordes y tablaturas de Mark knopfler > The trawlerman's song
The trawlerman's song
de Mark knopfler
Puntúa este acorde/tab:      
(0.5/5)
Reportar este acorde/tab
  Añadir a tus favoritos
  Imprimir
(Capo on third fret)


Intro:

Am
-------------------------------------------------------
-------------------------------------------------------
--------8----------------------------------------------
------8---8-10------8-10----------------------8-----10-
-8-10-------------------10--8-9-8-3------8-10----------
------------------------------------------------11-8---

Am                               D
We're taking on water, diesel and stores 
G                           C
Laying up awhile before I'm back on board 
Am
They're patching her up 
               D              G
To go fishing again, fishing again
Am                            D                   
They're welding her rudder scrubbing her keel 
G                       C
Scars on her belly need time to heal 
       Am
In the dock 
             B
With the trawlermen 
   Am                          D
I know all the people, there's nobody new 
G                               C
Soon we'll be leaving with the same old crew 
        Am                       D        G 
On the green water the tumbling sea 
 Am                          D
They ain't running like the good old days 
G                             C
Time's just slipping Down the old slipways 
        Am          B
In the dock so dear to me 

[Chorus]
   Am        D     G        Em     
Dark is the night, I need a guiding light 
        G           Em
To keep me from foundering 
          D
On the rocks 
  Am    D      G          Em     
My only prayer is just to see you there 
       G            D
At the end of my wandering 
            G            G7
Back in the dock 

[Instrumental bridge] 
C  Am D Bm F Em B B7 Em 

  Am                                D
I could use a layoff, getting my strength back 
        G                            C
But there's a loan to pay off  and a few skipjack 
           Am
So it's a turnaround 
                     D      G
Back in the southerly wind 
 Am                         D
Pirates coming in to steal our gold 
     G                               C
You can count yourself lucky with a profit in the hold 
       Am            B
In the dock when we come in 


   Am        D     G        Em     
Dark is the night, I need a guiding light 
        G           Em
To keep me from foundering 
          D
On the rocks 
  Am    D      G          Em     
My only prayer is just to see you there 
       G            D
At the end of my wandering 
            G            G7
Back in the dock 

Song ends:
C Am D Bm F Em B B7 Em G C Am D Bm F Em B B7 C B7 Em G . . .

Final guitar solo:    

        4:03                                 
--------------------------- | ----------------------------- | 
-----------8--------------- | ----------------------------- | 
-------------10---8-7------ | -----10h-12h-10-------------- | 
----------------------10--- | -------------------10/-12---- | 
--------------------------- | ----------------------------- | 
--------------------------- | ----------------------------- | 
   
---------------------------- | ------------------------- | 
---------------------------- | ----x-11/8--------------- | 
------10~------------------- | --------------8---------- | 
----------13--12--10--10---- | -------------------10---- | 
---------------------------- | ------------------------- | 
---------------------------- | ------------------------- | 

------------------------------- | ------------------------- | 
------------------------------- | --8---------------------- | 
------10----------------------- | -------8-----10--12------ | 
--13------13--12--10--10r-8---- | -------10---------------- | 
------------------------------- | ------------------------- | 
------------------------------- | ------------------------- | 
------------------------- | ---------------------------------- | 
------------------------- | ---------------------------------- | 
--12--11----------------- | ---------------------------------- | 
----------12~----10--10-- | --------10--11-10-----10---------- | 
------------------------- | ----13------------13------13--10~- | 
------------------------- | ---------------------------------- | 

------------------------- | ------------------------- | 
------------------------- | ------------------------- | 
------------------------- | --10--------------------- | 
-------------8--10r-10b-- | ------10r---8------------ | 
------8h-10-------------- | ---------------10-------- | 
------------------------- | ------------------------- | 

---------------------------- | ------------------------- | 
---------------------------- | ------------------------- | 
---------------------------- | ------------------------- | 
---------------------------- | --8--7---------7--------- | 
---------------------8--10-- | --------10--8-----8------ | 
----8h7h6--8h-6--10--------- | ------------------------- | 
                       
-------------------------- | -------------------- | ------------ | 
-------------------------- | -------------------- | ------------ | 
-----8--7----------------- | --------7--8-------- | ------------ | 
--8--------10--8--10------ | --10------------7--- | -----8h-10-- | 
-------------------------- | -------------------- | -----8--10-- | 
-------------------------- | -------------------- | ------------ | 
                    
------------------ | ------------------ | ----------------------8- | 
------------------ | --11--9------9--8- | -------------8------8--- | 
-7--7---7---10--8- | --------8--------- | -10--8--10b------10b---- | 
-7--7------------- | ------------------ | ------------------------ | 
------------------ | ------------------ | ------------------------ | 
------------------ | ------------------ | ------------------------ | 
 
--------------------------- | ------------------------ | 
--8-----------8----8---8h-- | --9---8----------------- | 
----10-8--10--------------- | ---------10------------- | 
--------------------------- | --------------12-------- | 
--------------------------- | ------------------------ | 
--------------------------- | ------------------------ | 
 
------------------------------ | -------------------- |  | 
------------------------------ | -------------------- |  | 
--------------------7--------- | -------------------- |  | 
--10h-8--10h-8--10-----10--8-- | -------------------- |  | 
------------------------------ | --10---------------- |  | 
------------------------------ | -------------------- |  | 
 
h= hammer on or pull off
b= bend
r= release bend
/= slide 		   
AcordesyTabs.com © 2008 Acordes y Tablaturas para guitarra. Tabs and Chords for guitar. Aviso Legal - Contacto
El uso de este sitio está sujeto a la aceptación de los términos y condiciones (31 usuarios online)