tablaturas, partituras y acordes para guitarra
Busca por banda/artista:
 
y/o título de la canción:
A B C D E F G H I J K L M N O P Q R S T U V W X Y Z 0 1 2 3 4 5 6 7 8 9 / Top 100 tabs
Categorías
Usuarios
usuario:
Darse de alta
password:
Artistas más visitados
Publicidad
TOP acordes y tablaturas de Jack johnson


Taylor
de Jack johnson
Puntúa este acorde/tab:      
(0.7/5)
Reportar este acorde/tab
  Añadir a tus favoritos
  Imprimir
Tuning:Standard



INTRO
e|-----------------------------------X------------------------------------------X---|
B|-------X---------------------------X------------------X-----------------------X---|
G|-------X---------------------------X------------------X-----------------------X---|
D|-------X---------------------------X------------------X-xx-1h3p1-1p0----------X---|
A|-x-1h3---x-1h3p1---1---3-2p0-------X-------1-1--x2/3------------3---3p0-------X---|
E|-----------------3-----------0-1-1---x-1h2h3----------------------------0-1-1-----|

e|-------------------------------------------------------------x-xx--0--0-0---|
B|------------------------x--------------------------x----4-4--x-xx--1--1-1---|
G|------------------------x--------------------------x----2-2--x-xx--0--0-0---|
D|------------------------x--3-3/5-5-4p2-2p0---------x----3-3--x-xx--2--2-2---|
A|-x---1---1---1---1-3----x-----------------3p0------x----3-3--x-xx--3--------|
E|--1h3-1h3-1h3-1--------------------------------1-1--------------------------|

e|---0---0---0-----------0-----|
B|--/5-5-3-3-1-1---------1-----|
G|---0---0---0---5p3p0---2-----|
D|-----------------------3-----|
A|-----------------------------|
E|-----------------------------|

VERSE AND CHORUS
   the emphasis is on the lower notes so don't play the higher strings as much
and focus on the lower strings
e|---------------------------------------|
B|--11111xxx-11111xxx-11111xxx-----------|
G|--00000xxx-00000xxx-00000xxx-22222xxx--|
D|--22222xxx-00000xxx-22222xxx-33333xxx--|
A|--33333xxx-22222xxx-00000xxx-33333xxx--|
E|-----------------------------11111xxx--|




If taylor finds a better world....

e|---------------------------------------------------------|
B|--1--1-1--1-1-/-3--3-3--3-3-/-6--6-6--6-6-/-8--8-8--8-8--|
G|--0--0-0--0-0-/-0--0-0--0-0-/-0--0-0--0-0-/-0--0-0--0-0--|
D|--2--2-2--2-2-/-4--4-4--4-4-/-7--7-7--7-7-/-9--9-9--9-9--|
A|--3--3-3--3-3-/-5--5-5--5-5-/-8--8-8--8-8-/-10-1010-1010-|
E|---------------------------------------------------------|

OUTRO same as intro


| /  slide up
| h  hammer-on
| p  pull-off
| ~  vibrato
| +  harmonic
| x  Mute note

Lyrics:


they say taylor was a good girl, never one to be late
complain, express ideas in her brain
working on the night shift, passing out the tickets,
youre gonna have to pay her if you want to park here
well mommys little dancer has quite a little secret
working on the streets now, never gonna keep it
its quite an imposition and now shes only wishing
that she would have listened to the words they said
poor taylor

she just wanders around, unaffected by
the winter winds and shell pretend that
shes somewhere else, so far and clear
about two thousand miles from here

peter patrick pitter patters on the window
but sunny silhouette wont let him in
poor old petes got nothing because hes been falling
somehow sunny knows just where hes been
he thinks that singing on sunday is gonna save his soul
now that saturday is gone
sometimes he thinks that hes on his way
but i can see that his break lights are on

he just wanders around, unaffected by
the winter winds and hell pretend that
hes somewhere else, so far and clear
about two thousand miles from here

such a tough enchilada filled up with nada
giving what she gotta give to get a dollar bill
used to be a limber chicken, times a been a ticking
nows shes finger licking to the man
with the money in his pocket flying in his rocket
only stopping by on his way to a better world

if taylor finds a better world
then taylor's gonna run away 		   
AcordesyTabs.com © 2008 Acordes y Tablaturas para guitarra. Tabs and Chords for guitar. Aviso Legal - Contacto
El uso de este sitio está sujeto a la aceptación de los términos y condiciones (15 usuarios online)