tablaturas, partituras y acordes para guitarra
Busca por banda/artista:
 
y/o título de la canción:
A B C D E F G H I J K L M N O P Q R S T U V W X Y Z 0 1 2 3 4 5 6 7 8 9 / Top 100 tabs
Categorías
Usuarios
usuario:
Darse de alta
password:
Artistas más visitados
Publicidad
TOP acordes y tablaturas de 12-stones


Estás en: Inicio > Letra 1 > Acordes y tablaturas de 12-stones > Running out of pain
Running out of pain
de 12-stones
Puntúa este acorde/tab:      
(0.6/5)
Reportar este acorde/tab
  Añadir a tus favoritos
  Imprimir
Tuning: One and a half steps below Drop D (B, Gb, B, E, Ab, Db)

Verse
---------------------------------------------------|
---------------------------------------------------|
-------0-0-----------0-0------0-0------0-0---------|
-----4-----4-----4-----4-----4-----4-----4---4-----|
---2---------2---2---------2---2-------2---2----2--|
-2-------------2-------------0-------------0-------|

---------------------------------------------------|
--------3-3-----0-----3-0-------5-5----0---5-0-----|
---0--------0-----0-------0------0------0---0--0---|
-----2--------2-----2-------2------4-------4---4-4-|
-3-----------------------------5-------------------|
---------------------------------------------------|

Chorus
---------------------------------------------------|
---------------------------------------------------|
----------------5-5-5-5-5-5-5-5-5-5-7-7-7-7-7-7-7-7
-2-2-2-2-2-2-2-2-2-4-0-0-0-0-0-0-0-0-5-5-5-5-5-5-5-5-5-5-7-7-7-7-7-7-7-7-I
-2-2-2-2-2-2-2-2-2-4-0-0-0-0-0-0-0-0-3-3-3-3-3-3-3-3-3-3-5-5-5-5-5-5-5-5-I
-2-2-2-2-2-2-2-2-2-4-0-0-0-0-0-0-0-0---------------|

Bridge
---------------------------------------------------|
---------------------------------------------------|
---------------------------------------------------|
-2-2-2-5-4-2-4-2-4-5-0-0-0-4-2-0-2-0-2-4-----------|
-2-2-2-5-4-2-4-2-4-5-0-0-0-4-2-0-2-0-2-4-----------|
-2-2-2-5-4-2-4-2-4-5-0-0-0-4-2-0-2-0-2-4-----------|		   
AcordesyTabs.com © 2008 Acordes y Tablaturas para guitarra. Tabs and Chords for guitar. Aviso Legal - Contacto
El uso de este sitio está sujeto a la aceptación de los términos y condiciones (11 usuarios online)