tablaturas, partituras y acordes para guitarra
Busca por banda/artista:
 
y/o título de la canción:
A B C D E F G H I J K L M N O P Q R S T U V W X Y Z 0 1 2 3 4 5 6 7 8 9 / Top 100 tabs
Categorías
Usuarios
usuario:
Darse de alta
password:
Artistas más visitados
Publicidad
TOP acordes y tablaturas de Green day


Estás en: Inicio > Letra G > Acordes y tablaturas de Green day > She's a rebel
She's a rebel
de Green day
Puntúa este acorde/tab:      
(0.3/5)
Reportar este acorde/tab
  Añadir a tus favoritos
  Imprimir
Riff 1:
   G5      G5      G5      D5  C5   x2
e|----------------------------------|
B|----------------------------------|
G|-------------------------7---5----|
D|-5-------5-------5-------7---5----|
A|-5-------5-------5-------5---3----|
E|-3-------3-------3----------------|

Riff 2:
   G5  C5  G5  C5  G5  C5  D5  C5   x2
e|----------------------------------|
B|----------------------------------|
G|-----5-------5-------5---7---5----|
D|-5---5---5---5---5---5---7---5----|
A|-5---3---5---3---5---3---5---3----|
E|-3-------3-------3----------------|

Chorus                                                      
   Em      Bm      C5      G5      Em  Bm  C5      G5      D5 
e|--------------------------------------------------------------|
B|-6-------7-----------------------6---7---13-------------------|
G|-9-------8-------5---------------9---8---12------12-----------|
D|-9-------9-------5-------5-------9---9---10------12------12---|
A|-7-------9-------3-------5-------7---9-----------10------12---|
E|---------7---------------3-----------7-------------------10---|
                                                
   B5   A5   C5     G5  D5
e|---------------------------|
B|---------------------------|
G|------------------12-------|
D|-9-9--7-7--1010---12--12---|
A|-9-9--7-7--1010---10--12---|
E|-7-7--5-5--8-8--------10---|
  (Well nothing comes to mind)

Bridge:
Guitar 1 plays Riff 2
      G5     C5     G5     C5     G5     C5   D5     C5       x2
e|------------------------------------------------------------|
B|----3-3-----------3-3-----------3-3-------------------------|
G|-xx-4-4-xx-5-5-xx-4-4-xx-5-5-xx-4-4-xx-5-5-/2-2-2--2-4-5-4--|
D|-----------5-5-----------5-5-----------5-5------------------|
A|------------------------------------------------------------|
E|------------------------------------------------------------|
                                 Leave last note out on second repeat

Order:
Verse 1 (Riff 1)
Verse 2 (Riff 2)
Riff 2
Verse 3 (Riff 2)
Chorus
Bridge
Chorus
Verse 1 (Riff 1)
Verse 1 (Riff 2)
Bridge
End on G5


Lyrics:

She's a rebel
She's a saint                   
She's the salt of the earth
And she's dangerous             (Verse 1)
She's a rebel
Vigilante                       
Missing link on the brink       
Of destruction

From Chicago 
To Toronto                      
She's the one that they
Call old Whatsername            (Verse 2)
She's the symbol
Of resistance                   
And she's holding on my
Heart like a hand grenade

Is she dreaming
What I'm thinking
Is she the mother of all bombs  
Gonna detonate                  (Verse 3)
Is she trouble                  
Like I'm trouble
Make it a double                
Twist of fate
Or a melody that

She sings the revolution
The dawning of our lives
She brings this liberation      (Chorus)
That I just cant define
Well nothing comes to mind

(Bridge)
(Chorus)
(Verse 1) x2

She's a rebel
She's a rebel                   
She's a rebel           
And she's dangerous             (Bridge)
She's a rebel
She's a rebel                   
She's a rebel
And she's dangerous		   
AcordesyTabs.com © 2008 Acordes y Tablaturas para guitarra. Tabs and Chords for guitar. Aviso Legal - Contacto
El uso de este sitio está sujeto a la aceptación de los términos y condiciones (14 usuarios online)