tablaturas, partituras y acordes para guitarra
Busca por banda/artista:
 
y/o título de la canción:
A B C D E F G H I J K L M N O P Q R S T U V W X Y Z 0 1 2 3 4 5 6 7 8 9 / Top 100 tabs
Categorías
Usuarios
usuario:
Darse de alta
password:
Artistas más visitados
Publicidad
TOP acordes y tablaturas de Yngwie malmsteen


Magic mirror
de Yngwie malmsteen
Puntúa este acorde/tab:      
(0.7/5)
Reportar este acorde/tab
  Añadir a tus favoritos
  Imprimir
tune down 1/2 step


|-----------------------------|--------------------------------------------|
|---6------8-------5----------|------5~------------------------------------|
|---7------9-------6----------|------6~------------------------------------|
|-----------------------------|--------------------------------------------|
|-----------------------------|--------------------------------------------|
|-----------------------------|--------------------------------------------|


|---------------------------|-------------|--------------------------------|
|---6------8-------5--------|--6~---------|----6--------8----------5-------|
|---7------9-------6--------|--7~---------|----7--------9----------6-------|
|---------------------------|-------------|--------------------------------|
|---------------------------|-------------|--------------------------------|
|---------------------------|-------------|--------------------------------|


|--------------------|-------------------------|---------------------------|
|----6---------------|---6------8------5-------|----6~---------------------|
|----7---------------|---7------9------6-------|----7~---------------------|
|--------------------|-------------------------|---------------------------|
|--------------------|-------------------------|---------------------------|
|--------------------|-------------------------|-------------------13s-----|


|---------------------------------|--------9-12p9---------------------------|
|---------------------------------|8h10-11----------------------------------|
|-------------------------6h7-9-6-|---------------12p9-12p10-9----10p9------|
|-----------------5h7-8-5---------|----------------------------12------12-11|
|---------4h5-7-4-----------------|-----------------------------------------|
|-3h5-6-3-------------------------|-----------------------------------------|


1. Everyone is searching for the meaning of our life
2. Now your eyes are open and you know you were a fool

|----------------------------|--------------------------|------------------|
|----------------------------|---8------5-------6~------|---6s-------------|
|----------------------------|---9------6-------7~------|---7s-------------|
|----------------------------|--------------------------|------------------|
|----------------------------|--------------------------|------------------|
|----------------------------|--------------------------|------------------|


Reading bout the hell and heaven 
You always had the power, but you 

|-------------------------------|--------------|---------------------------|
|-----------8-----5------6~-----|--6s----------|---8--------5-----6~-------|
|-----------9-----6------7~-----|--7s----------|---9--------6-----7~-------|
|-------------------------------|--------------|---------------------------|
|-------------------------------|--------------|---------------------------|
|-------------------------------|--------------|---------------------------|


believing all those lies.                    Look upon your-
never broke the rules                         Once again I

|--------------|----------------------------|------------------------------|
|---6s---------|-----------8------5---------|----6-------------------------|
|---7s---------|-----------9------6---------|----7-------------------------|
|--------------|----------------------------|------------------------------|
|--------------|----------------------------|------------------------------|
|--------------|----------------------------|------------------------------|


self   imagine you are two
say, the strength that we are all searching for

|--------------|-------------|----------------------|----------------------|
|-5------------|-------------|------3---------------|----3-----------------|
|-5------------|---2---------|------2---------------|----3-----------------|
|-5------------|---3---------|------4---------------|----5-----------------|
|--------------|-------------|----------------------|----------------------|
|--------------|-------------|----------------------|----------------------|


power lies within                               this is true
high and low we look,                           till the day

|-------------------------|-------------------------|-----------------------|
|-------------------------|-------------------------|-----------------------|
|-9--9--9--9--9--9--9--9--|-9--9--9--9--9--9--9--9--|10-10-10-10-10-10-10-10|
|-9--9--9--9--9--9--9--9--|-9--9--9--9--9--9--9--9--|-7--7--7--7--7--7--7--7|
|-7--7--7--7--7--7--7--7--|-7--7--7--7--7--7--7--7--|-----------------------|
|-------------------------|-------------------------|-----------------------|

                             Can't you see,     it's clear like a mirror

|-------------------------|------------------------|------------------------|
|-------------------------|------------------------|------------------------|
|-9--9--9--9---9--9--9--9-|------------------------|---------------3--3--3--|
|s7--7--7--7---7--7--7--7-|-3--3--3--3--3--3--3--3-|3--3--3--3--3--3--3--3--|
|-------------------------|-1--1--1--1--1--1--1--1-|1--1--1--1--1--1--1--1--|
|-------------------------|------------------------|------------------------|


            It's all within what you're searching for
            It's only been what you're searching for

|-------3-------3--|---------------------|---------------------------------|
|------------3-----|---------------------|---------------------------------|
|-0----------------|-5--5--5--5----------|-------------------------6h7-9-6-|
|-0----------------|-5--5--5--5----------|-----------------5h7-8-5---------|
|-2----------------|-3--3--3--3--4----4--|---------4h5-7-4-----------------|
|------------------|---------------------|-3h5-6-3-------------------------|

  
                                            Magic mirror

|---------9-12p9----------------------------|----------------|-------------|
|-8h10-11-----------------------------------|-----6----8---5-|-6-----------|
|----------------12p9-12p10-9----10p9-------|-----7----9---6-|-7-----------|
|-----------------------------12------12-11-|12--------------|-------------|
|-------------------------------------------|----------------|---1-0-1-4---|
|-------------------------------------------|----------------|-------------|

                                             Magic mirror
 
|------------------|-------------------------|-----------------------------|
|-----8-------5----|---6---------------------|----------8-------5----------|
|-----9-------6----|---7---------------------|----------9-------6----------|
|------------------|-------3--3--3-----------|-----------------------------|
|------------------|-------1--0--1--4--------|-----------------------------|
|------------------|-------------------------|-----------------------------|


|-------------------|----------------------|-------------------||----------|
|---6~--------------|--------8-------5-----|---6~--------------||-8----5---|
|---7~--------------|--------9-------6-----|---7~--------------||-9----6---|
|-------------------|----------------------|--------3--3--3----||----------|
|------1--0--1--4---|----------------------|--------1--0--1--4-||----------|
|-------------------|----------------------|-------------------||----------|

Interlude

|-19-22p20-18s15-18-17-15-17-20p18p17s13-17-15-13-|15-18p17p15-12-15p13p12--
|-------------------------------------------------|-------------------------
|-------------------------------------------------|-------------------------
|-------------------------------------------------|-------------------------
|-------------------------------------------------|-------------------------
|-------------------------------------------------|-------------------------
|                                                 |
|                                                 |
|-------------------------------------------------|-------------------------
|-------------------------------------------------|-------------------------
|-------------------------------------------------|-------------------------
|-5-----------------------------------------------|-------------------------
|-------------7------------8----------5-----------|-7----------4------------
|-------------------------------------------------|-------------------------


|---13----------15----------|-17----------18-------------|17h18-15h18-13h18-
|15----15-14h15----15-14h15-|----15-14h15----15-14h15p14-|------------------
|---------------------------|----------------------------|------------------
|---------------------------|----------------------------|------------------
|---------------------------|----------------------------|------------------
|---------------------------|----------------------------|------------------
|                           |                            |
|                           |                            |
|---------------------------|----------------------------|------------------
|---------------------------|----------------------------|------------------
|---------------------------|----------------------------|------------------
|---------------------------|----------------------------|------------------
|-5----------------7--------|--8--------------10---------|10s12-------------
|---------------------------|----------------------------|------------------


|----18----18-------------15-17-|-18-15-17----15----------------------------
|-17----15----14-15-17-18-------|----------18----17-18-15-17----15----------
|-------------------------------|----------------------------18----15-18-14-
|-------------------------------|-------------------------------------------
|-------------------------------|-------------------------------------------
|-------------------------------|-------------------------------------------
|                               |
|                               |
|-------------------------------|--6--3--5----3-----------------------------
|-------------------------------|----------6------5--6--3--5-----3----------
|-------------------------------|-----------------------------6-----3--6--2-
|-------------------------------|-------------------------------------------
|-------0-----------------------|-------------------------------------------
|-------------------------------|-------------------------------------------


|--------|------------------------------|
|--------|------------------------------|
|-15-----|-14---------------------------|
|----17--|----15-17-14-15----14---------|
|--------|----------------17----16-17~--|
|--------|------------------------------|
|        |                              |
|        |                              |
|--------|------------------------------|
|--------|------------------------------|
|--3-----|--2---------------------------|
|-----5--|-----3--5--2--3-----2---------|
|--------|-----------------5-----4--5~--|
|--------|------------------------------|


Guitar solo

|-13h15p13p11----------------11h13-15-11-13-15s16-13-15-16s18-18p15--------|
|-------------15-13p11-13-15----------------------------------------16-----|
|--------------------------------------------------------------------------|
|--------------------------------------------------------------------------|
|--------------------------------------------------------------------------|
|--------------------------------------------------------------------------|


|-------18p15-20p15-18p15----------18p15-18~-|----------------15p11-15s20---
|----16-------------------16----16-----------|-------------13---------------
|-15-------------------------15--------------|----------12------------------
|--------------------------------------------|s13p12-13---------------------
|--------------------------------------------|------------------------------
|--------------------------------------------|------------------------------


-19--20~---|-10h11p10----10------------|-11p8------11p8----13p8-11p8--------
-----------|----------13----13~---13~--|------11p8------11-----------11-8---
-----------|---------------------------|------------------------------------
-----------|---------------------------|------------------------------------
-----------|---------------------------|------------------------------------
-----------|---------------------------|------------------------------------


-11----8|h11p8----8---------------8---------------------------|-------------
----11--|------11---11p8h11p8-------11-8----------------------|-0-15-13-12h-
--------|---------------------10---------11-10-8----8bf-rb8~--|-------------
--------|----------------------------------------10-----------|-------------
--------|------------------		   
AcordesyTabs.com © 2008 Acordes y Tablaturas para guitarra. Tabs and Chords for guitar. Aviso Legal - Contacto
El uso de este sitio está sujeto a la aceptación de los términos y condiciones (87 usuarios online)