tablaturas, partituras y acordes para guitarra
Busca por banda/artista:
 
y/o título de la canción:
A B C D E F G H I J K L M N O P Q R S T U V W X Y Z 0 1 2 3 4 5 6 7 8 9 / Top 100 tabs
Categorías
Usuarios
usuario:
Darse de alta
password:
Artistas más visitados
Publicidad
TOP acordes y tablaturas de All american rejects


Swing swing
de All american rejects
Puntúa este acorde/tab:      
(1.1/5)
Reportar este acorde/tab
  Añadir a tus favoritos
  Imprimir
im not sure bout the second power cord, it could just be 2,4,4...but 
it sounds too obvious, so im stickin with 2,5,5
oh n in some parts i thought the guitar part was kinda borin...so i 
added the bass notes to it instead, so u can do bass n guitar at same
time...but if u want just a bass tab e-mail me n ask..i can write that 
separate 4 ya...i guess


intro: heavy distortion							
e----------------------------------------------------------------------
b----------------------------------------------------------------------
g----------------------------------------------------------------------
d-----5-5--5---5-5--5---5-5--5---10-10--10-----------------------------
a-----5-5--5---5-5--5---5-5--5---10-10--10-----------------------------
E-----3-3--3---2-2--2---3-3--3---8--8---8------------------------------
					     REPEAT

ORGAN IS OUT
e----------------------------------------------------------------------
b----------------------------------------------------------------------
g----------------------------------------------------------------------
d-----5-5-5-5-5-5-5-5---7-7-7-7-7-7-7-7---9-9-9-9-9-9-9-9--------------
a-----5-5-5-5-5-5-5-5---7-7-7-7-7-7-7-7---9-9-9-9-9-9-9-9--------------
E-----3-3-3-3-3-3-3-3---5-5-5-5-5-5-5-5---7-7-7-7-7-7-7-7--------------


e----------------------------------------------------------------------
b----------------------------------------------------------------------
g----------------------------------------------------------------------
d----10-10-10-10-10-10-10-10-------------------------------------------
a----10-10-10-10-10-10-10-10-------------------------------------------
E----8--8--8--8--8--8--8--8--------------------------------------------
			       REPEAT


**ok this part is wer i added the bass, but otherwise the guitar part is 
just 3,5,5 getting repeated through the next 2 systems. sry if the 
lyrics dont exactly match up...im tryin heh**

e----------------------------------------------------------------------
b----------------------------------------------------------------------
g----------------------------------------------------------------------
d-----5-5--5--------5-5--5--------5-5--5--------10-10--10--------------
a-----5-5--5--------5-5--5--------5-5--5--------10-10--10--------------
E-----3-3--3--------2-2--2--------0-0--0--------8--8---8---------------


e----------------------------------------------------------------------
b----------------------------------------------------------------------
g----------------------------------------------------------------------
d-----5-5--5--------5-5--5--------5-5--5--------10-10--10--------------
a-----5-5--5--------5-5--5--------5-5--5--------10-10--10--------------
E-----3-3--3--------2-2--2--------0-0--0--------8--8---8---------------


e----------------------------------------------------------------------
b----------------------------------------------------------------------
g----------------------------------------------------------------------
d-----5-5-5-5-5-5-5-5---5-5-5-5-5-5-5-5---2-2-2-2-2-2-2-2--------------
a-----5-5-5-5-5-5-5-5---5-5-5-5-5-5-5-5---2-2-2-2-2-2-2-2--------------
E-----3-3-3-3-3-3-3-3---3-3-3-3-3-3-3-3---0-0-0-0-0-0-0-0--------------
	

e----------------------------------------------------------------------
b----------------------------------------------------------------------
g----------------------------------------------------------------------
d-----10-10-10-10-10-10-10-10---5-5-5-5-5-5-5-5---5-5-5-5-5-5-5-5------
a-----10-10-10-10-10-10-10-10---5-5-5-5-5-5-5-5---5-5-5-5-5-5-5-5------
E-----8--8--8--8--8--8--8--8----3-3-3-3-3-3-3-3---3-3-3-3-3-3-3-3------
			

e----------------------------------------------------------------------
b----------------------------------------------------------------------
g------------------------------------------------hold-hold-------------
d-----2-2-2-2-2-2-2-2---10-10-10-10-10-10-10-10----11---10--10-10-10---
a-----2-2-2-2-2-2-2-2---10-10-10-10-10-10-10-10----11---10--10-10-10---
E-----0-0-0-0-0-0-0-0---8--8--8--8--8--8--8--8-----9----8---8--8--8----
            

e----------------------------------------------------------------------
b----------------------------------------------------------------------
g----------------------------------------------------------------------
d-----5-5-5-5-5-5-5-5---4-4-4-4-4-4-4-4---2-2-2-2-2-2-2-2--------------
a-----5-5-5-5-5-5-5-5---4-4-4-4-4-4-4-4---2-2-2-2-2-2-2-2--------------
E-----3-3-3-3-3-3-3-3---2-2-2-2-2-2-2-2---0-0-0-0-0-0-0-0--------------
 

e----------------------------------------------------------------------
b----------------------------------------------------------------------
g----------------------------------------------------------------------
d----10-10-10-10-10-10-10-10---5-5-5-5-5-5-5-5---4-4-4-4-4-4-4-4-------
a----10-10-10-10-10-10-10-10---5-5-5-5-5-5-5-5---4-4-4-4-4-4-4-4-------
E----8--8--8--8--8--8--8--8----3-3-3-3-3-3-3-3---2-2-2-2-2-2-2-2-------
       

e----------------------------------------------------------------------
b----------------------------------------------------------------------
g----------------------------------------------------------------------
d-----2-2-2-2-2-2-2-2---10-10-10-10-10-10-10-10------------------------
a-----2-2-2-2-2-2-2-2---10-10-10-10-10-10-10-10------------------------
E-----0-0-0-0-0-0-0-0---8--8--8--8--8--8--8--8-------------------------
         


**ill do this guitar part the way its played...without bass**
e----------------------------------------------------------------------
b----------------------------------------------------------------------
g----------------------------------------------------------------------
d-----5-5--5--------5-5--5--------5-5--5--------5-5--5-----------------
a-----5-5--5--------5-5--5--------5-5--5--------5-5--5-----------------
E-----3-3--3--------3-3--3--------3-3--3--------3-3--3-----------------


e----------------------------------------------------------------------
b----------------------------------------------------------------------
g----------------------------------------------------------------------
d-----5-5--5--------5-5--5--------5-5--5--------5-5--5-----------------
a-----5-5--5--------5-5--5--------5-5--5--------5-5--5-----------------
E-----3-3--3--------3-3--3--------3-3--3--------3-3--3-----------------


e----------------------------------------------------------------------
b----------------------------------------------------------------------
g----------------------------------------------------------------------
d-----5-5-5-5-5-5-5-5---5-5-5-5-5-5-5-5---2-2-2-2-2-2-2-2--------------
a-----5-5-5-5-5-5-5-5---5-5-5-5-5-5-5-5---2-2-2-2-2-2-2-2--------------
E-----3-3-3-3-3-3-3-3---3-3-3-3-3-3-3-3---0-0-0-0-0-0-0-0--------------
	
e----------------------------------------------------------------------
b----------------------------------------------------------------------
g----------------------------------------------------------------------
d-----10-10-10-10-10-10-10-10---5-5-5-5-5-5-5-5---5-5-5-5-5-5-5-5------
a-----10-10-10-10-10-10-10-10---5-5-5-5-5-5-5-5---5-5-5-5-5-5-5-5------
E-----8--8--8--8--8--8--8--8----3-3-3-3-3-3-3-3---3-3-3-3-3-3-3-3------
				

e----------------------------------------------------------------------
b----------------------------------------------------------------------
g------------------------------------------------hold-hold-------------
d-----2-2-2-2-2-2-2-2---10-10-10-10-10-10-10-10----11---10--10-10-10---
a-----2-2-2-2-2-2-2-2---10-10-10-10-10-10-10-10----11---10--10-10-10---
E-----0-0-0-0-0-0-0-0---8--8--8--8--8--8--8--8-----9----8---8--8--8----
           

e----------------------------------------------------------------------
b----------------------------------------------------------------------
g----------------------------------------------------------------------
d-----5-5-5-5-5-5-5-5---4-4-4-4-4-4-4-4---2-2-2-2-2-2-2-2--------------
a-----5-5-5-5-5-5-5-5---4-4-4-4-4-4-4-4---2-2-2-2-2-2-2-2--------------
E-----3-3-3-3-3-3-3-3---2-2-2-2-2-2-2-2---0-0-0-0-0-0-0-0--------------
 

e----------------------------------------------------------------------
b----------------------------------------------------------------------
g----------------------------------------------------------------------
d----10-10-10-10-10-10-10-10---5-5-5-5-5-5-5-5---4-4-4-4-4-4-4-4-------
a----10-10-10-10-10-10-10-10---5-5-5-5-5-5-5-5---4-4-4-4-4-4-4-4-------
E----8--8--8--8--8--8--8--8----3-3-3-3-3-3-3-3---2-2-2-2-2-2-2-2-------
     
e----------------------------------------------------------------------
b----------------------------------------------------------------------
g----------------------------------------------------------------------
d-----2-2-2-2-2-2-2-2---10-10-10-10-10-10-10-10------------------------
a-----2-2-2-2-2-2-2-2---10-10-10-10-10-10-10-10------------------------
E-----0-0-0-0-0-0-0-0---8--8--8--8--8--8--8--8-------------------------
         

**im sure u can figure out the backup guitar part...but this is the 
solo part...n i DONT THINK ITS RIGHT...i purposely left out some stuff
cuz im just 2 lazy to figure it out...it sounds like the backup 
guitar part changes n does some solo echoes or sumshit**

e------------------15----14-12----------15-----------------------------
b15--13-12--13--------12----12-12/13-15--13-12-13--------12------------
g--------------12---------------------------------12--12----12-11-12-14
d----------------------------------------------------------------------
a----------------------------------------------------------------------
E----------------------------------------------------------------------

**normal guitar part..im startin wen solo ends...skipped backup guitar
during solo..oh n thers another guitar part! err**

e----------------------------------------------------------------------
b----------------------------------------------------------------------
g-9-9--7-7---HOLD-----------HOLD----------------------9-9--7-7---------
d-9-9--7-7---9---------------10-----------------------9-9--7-7---------
a-7-7--5-5---9---------------10-----------------------7-7--5-5---------
E------------7---------------8-----------------------------------------
  
e----------------------------------------------------------------------
b----------------------------------------------------------------------
g----------------------------------------------------------------------
d---10-10-10-10-10-10-10-10-10-10-10-10-10-10-10-10--------------------
a---10-10-10-10-10-10-10-10-10-10-10-10-10-10-10-10--------------------
E---8--8--8--8--8--8--8--8--8--8--8--8--8--8--8--8---------------------
       

e----------------------------------------------------------------------
b----------------------------------------------------------------------
g----------------------------------------------------------------------
d-----5-5-5-5-5-5-5-5---4-4-4-4-4-4-4-4---2-2-2-2-2-2-2-2--------------
a-----5-5-5-5-5-5-5-5---4-4-4-4-4-4-4-4---2-2-2-2-2-2-2-2--------------
E-----3-3-3-3-3-3-3-3---2-2-2-2-2-2-2-2---0-0-0-0-0-0-0-0--------------
 

e----------------------------------------------------------------------
b----------------------------------------------------------------------
g----------------------------------------------------------------------
d----10-10-10-10-10-10-10-10---5-5-5-5-5-5-5-5---4-4-4-4-4-4-4-4-------
a----10-10-10-10-10-10-10-10---5-5-5-5-5-5-5-5---4-4-4-4-4-4-4-4-------
E----8--8--8--8--8--8--8--8----3-3-3-3-3-3-3-3---2-2-2-2-2-2-2-2-------
      
e----------------------------------------------------------------------
b----------------------------------------------------------------------
g----------------------------------------------------------------------
d-----2-2-2-2-2-2-2-2---10-10-10-10-10-10-10-10------------------------
a-----2-2-2-2-2-2-2-2---10-10-10-10-10-10-10-10------------------------
E-----0-0-0-0-0-0-0-0---8--8--8--8--8--8--8--8-------------------------
         

**play solo as backup...the solo changes but anyways**
e----------------------------------------------------------------------
b----------------------------------------------------------------------
g----------------------------------------------------------------------
d-----5-5-5-5-5-5-5-5---4-4-4-4-4-4-4-4---2-2-2-2-2-2-2-2--------------
a-----5-5-5-5-5-5-5-5---4-4-4-4-4-4-4-4---2-2-2-2-2-2-2-2--------------
E-----3-3-3-3-3-3-3-3---2-2-2-2-2-2-2-2---0-0-0-0-0-0-0-0--------------
 

e----------------------------------------------------------------------
b----------------------------------------------------------------------
g----------------------------------------------------------------------
d----10-10-10-10-10-10-10-10---5-5-5-5-5-5-5-5---4-4-4-4-4-4-4-4-------
a----10-10-10-10-10-10-10-10---5-5-5-5-5-5-5-5---4-4-4-4-4-4-4-4-------
E----8--8--8--8--8--8--8--8----3-3-3-3-3-3-3-3---2-2-2-2-2-2-2-2-------
       

e----------------------------------------------------------------------
b----------------------------------------------------------------------
g----------------------------------------------------------------------
d-----2-2-2-2-2-2-2-2---10-10-10-10-10-10-10-10------------------------
a-----2-2-2-2-2-2-2-2---10-10-10-10-10-10-10-10------------------------
E-----0-0-0-0-0-0-0-0---8--8--8--8--8--8--8--8-------------------------
         

**fadeee awayyy....**		   
AcordesyTabs.com © 2008 Acordes y Tablaturas para guitarra. Tabs and Chords for guitar. Aviso Legal - Contacto
El uso de este sitio está sujeto a la aceptación de los términos y condiciones (18 usuarios online)