tablaturas, partituras y acordes para guitarra
Busca por banda/artista:
 
y/o título de la canción:
A B C D E F G H I J K L M N O P Q R S T U V W X Y Z 0 1 2 3 4 5 6 7 8 9 / Top 100 tabs
Categorías
Usuarios
usuario:
Darse de alta
password:
Artistas más visitados
Publicidad
TOP acordes y tablaturas de Rammstein


Links
de Rammstein
Puntúa este acorde/tab:      
(0.6/5)
Reportar este acorde/tab
  Añadir a tus favoritos
  Imprimir
Riff 1         

E -----------------------------------------------
B -----------------------------------------------
G -----9-------9-------9-------------------------
D -----9-------9-------9-------5---7---8---------
A -----7-------7-------7-------5->-7---8---------
E 0-0----0-0-0---0-0-0----00---3---5-0-6---------

PM...    .....   .....    ..         .



Riff 2
E -----------------------------------------------
B -----------------------------------------------
G -----9-------9-------9-------------------------
D -----9-------9-------9--------8-8-8------------
A -----7-------7-------7--------8-8-8------------
E 0-0----0-0-0---0-0-0----0000--6-6-6------------

PM...    .....   .....    ....    


Riff 3
E -----------------------------------------------
B -----------------------------------------------
G -----------------------------------------------
D 2---5---7--------7-7---------------------------
A 2---5---7--------7-7---------------------------
E 0---3---5---6666-6-6---------------------------
PM            ....


Riff 4 (no dist)
E -----------------------------------------------
B -----------------------------------------------
G -----------------------------------------------
D ----2-------2-------2-----5---7---8------------
A ----2-------2-------2-----5->-7---8------------
E 0-0-0-0-0-0-0-0-0-0-0-00--3---5-0-6------------
PM...   .....   .....   ..        .


Solo (hammer off after each note)                                                      
E -----------7---------------7----------0-------------------7---------------7----------7--------
B ---7-8-10-----10-8-7-8-10----10-8-7-8-------------7-8-10-----10-8-7-8-10----10-8-7-8----------
G ----------------------------------------------------------------------------------------------
D ----------------------------------------------------------------------------------------------
A ----------------------------------------------------------------------------------------------
E ----------------------------------------------------------------------------------------------
										        ^let it ring last time

-Song progression-

-Riff 1 (3x)
-Riff 2 (1x)
-Riff 1 (2x)
-Riff 1 (4x)
-Riff 1 (4x)
-Riff 3 (2x)
-Riff 4 (9x)  Solo 2x: During Riff 4 (4x-9x's)  
-Riff 1 (8x)
-Riff 3 (4x)		   
AcordesyTabs.com © 2008 Acordes y Tablaturas para guitarra. Tabs and Chords for guitar. Aviso Legal - Contacto
El uso de este sitio está sujeto a la aceptación de los términos y condiciones (21 usuarios online)