tablaturas, partituras y acordes para guitarra
Busca por banda/artista:
 
y/o título de la canción:
A B C D E F G H I J K L M N O P Q R S T U V W X Y Z 0 1 2 3 4 5 6 7 8 9 / Top 100 tabs
Categorías
Usuarios
usuario:
Darse de alta
password:
Artistas más visitados
Publicidad
TOP acordes y tablaturas de Yngwie malmsteen


Estás en: Inicio > Letra Y > Acordes y tablaturas de Yngwie malmsteen > Arpeggios from hell
Arpeggios from hell
de Yngwie malmsteen
Puntúa este acorde/tab:      
(0.8/5)
Reportar este acorde/tab
  Añadir a tus favoritos
  Imprimir
e-------------------------------------------7-7-12-7
B----------------------------------------8-8-8-----
G------------------------------------9--9--9-------
D--------------------------------9--9--9-----------
A--------------------7--7-10-7-10-10---------------
E0/12-0-0-3-0-3-7-3-7--7---------------------------


e12h15-14-12-15-14-12-19-15-----------------------
B--------------------------17--17-----------------
G----------------------------16--16--16-----------
D----------------------------------17--17-14-17-14
A-------------------------------------------------
E-------------------------------------------------

e----------------------------------------------12-12
B-----------------------------------------13--13-13
G-----------------------------------14--14--14----
D--14-------------------------14--14--14----------
A14--14--14-----12-12-15-12-15--15----------------
E------15--15-12~---------------------------------

e17~--17p14-----------------------------------------
B----------16--16-----------------------------------
G------------17--17-14-17-14--14--------------------
D---------------------------16--16-13-16-13--13-----
A------------------------------------------15--15-12
E---------------------------------------------------

e-15-12---------------------------------------------
B------14--14---------------------------------------
G--------15--15-12-15-12--12------------------------
D-----------------------14--14-11-14-11--11---------
A--------------------------------------13--13-10----
E---------------------------------------------------

e-15-12--14-11--15-12--14-11--15-12--14-11--15~-----
B------12-----12-----12-----12-----12-----12--------
G---------------------------------------------------
D---------------------------------------------------
A---------------------------------------------------
E---------------------------------------------------

e-15-14-12-11---------------------------------------
B------------13-12-10-------------------------------
G--------------------12-11-9-8----------------------
D------------------------------10-9-7---------------
A-------------------------------------10-9-7-6------
E---------------------------------------------0-----		   
AcordesyTabs.com © 2008 Acordes y Tablaturas para guitarra. Tabs and Chords for guitar. Aviso Legal - Contacto
El uso de este sitio está sujeto a la aceptación de los términos y condiciones (29 usuarios online)