tablaturas, partituras y acordes para guitarra
Busca por banda/artista:
 
y/o título de la canción:
A B C D E F G H I J K L M N O P Q R S T U V W X Y Z 0 1 2 3 4 5 6 7 8 9 / Top 100 tabs
Categorías
Usuarios
usuario:
Darse de alta
password:
Artistas más visitados
Publicidad
TOP acordes y tablaturas de Blink 182


Estás en: Inicio > Letra B > Acordes y tablaturas de Blink 182 > Peggy sue (live)
Peggy sue (live)
de Blink 182
Puntúa este acorde/tab:      
(0.7/5)
Reportar este acorde/tab
  Añadir a tus favoritos
  Imprimir
Intro:
G:-----------------------------------------------------------------
D:-----------------------------------------------------------------
A:-----------------5-5-5-5-5-5-5-5------------------7-7-7-7-7-7-7--
E:-5-5-5-5-5-5-5-5------------------5-5-5-5-5-5-5-5----------------

G:---------------------------------------------------
D:---------------------------------------------------
A:-5-5-5-5-5-5-5-5-----------------------------------
E:-----------------5-5-5-5-5-5-5-5-5-5-5-5-5-5-5-5---

Verso:
G:---------------------------------------------------------------
D:---------------------------------------------------------------
A:---------------------------------------------------------------
E:-5-5-5-5-5-5-5-5--2-2-2-2-2-2-2-2--5-5-5-5-5-5-5-5--0-0-2-2-0--

Refrão:
G:-------------------------------------------------------------------
D:-------------------------------------------------------------------
A:-5-5-5-5-5-5-5-5-----------------10-10-10-10-10-10-10-10--9-9-9-9--
E:-----------------5-5-5-5-5-5-5-5-----------------------------------

G:----------
D:----------
A:-7-7-7-7--
E:----------

Solo:
G:--------------------------------------------------------------------
D:--------------------------------------------------------------------
A:--------------------------------------------------------------------
E:-5-5-5-5-5-5-5-5-5-5-5-5-5-5--0-0-0-0-0-0-0-0-0--10-10-10-10-10-10—12-12-12-10 

G:--------------------------------------------------------------------
D:--------------------------------------------------------------------
A:--------------------------------7-7-7-7-7-7-7-7-7-------------------
E:-5-5-5-5-5-5-5-5-5-5-5-5-5-5-----------------------10-10-10-10-10-10-12-12-12-10		   
AcordesyTabs.com © 2008 Acordes y Tablaturas para guitarra. Tabs and Chords for guitar. Aviso Legal - Contacto
El uso de este sitio está sujeto a la aceptación de los términos y condiciones (23 usuarios online)