tablaturas, partituras y acordes para guitarra
Busca por banda/artista:
 
y/o título de la canción:
A B C D E F G H I J K L M N O P Q R S T U V W X Y Z 0 1 2 3 4 5 6 7 8 9 / Top 100 tabs
Categorías
Usuarios
usuario:
Darse de alta
password:
Artistas más visitados
Publicidad
TOP acordes y tablaturas de Voodoo glow skulls


Estás en: Inicio > Letra V > Acordes y tablaturas de Voodoo glow skulls > Ethnic cleansing day
Ethnic cleansing day
de Voodoo glow skulls
Puntúa este acorde/tab:      
(0.6/5)
Reportar este acorde/tab
  Añadir a tus favoritos
  Imprimir
Intro (2xs)
  AA B C B A    GG A B A G   FF G A G F E     
E--------------------------------------------
B--------------------------------------------
G--------------------------------------------
D-77-9-10-9-7---55-7-9-7-5---33-5-7-5-3-2----
A-77-9-10-9-7---55-7-9-7-5---33-5-7-5-3-2----
E-55-7-8--7-5---33-5-7-5-3---11-3-5-3-1-0---- 

Refrão
  C                C/B              Bb               A  
E------------------------------------------------------
B------------------------------------------------------
G------------------------------------------------------
D-55-555-555-555-5-55-555-555-555-5-33-333-333-333-3-2-
A-33-333-333-333-3-22-222-222-222-2-11-111-111-111-1-0-
E------------------------------------------------------

Intro (2xs)

Verso 2 (primeira vez com palm mute)
  AA B C B A    GG A B A G   FF G A G F E     
E--------------------------------------------
B--------------------------------------------
G--------------------------------------------
D-77-9-10-9-7---55-7-9-7-5---33-5-7-5-3-2----
A-77-9-10-9-7---55-7-9-7-5---33-5-7-5-3-2----
E-55-7-8--7-5---33-5-7-5-3---11-3-5-3-1-0---- 

Refrão (2xs)

Ponte
  G A A#DA# A       GG     G A A# D A# A  D#      G A A# D A# A D#  A#  G A A# D A# A D#      G A A# D A# A  D# F    
E-------------------------------------------------------------------------------------------------------------------
B(--------2xs---------)---------------------------------------------------------------------------------------------
G-------7-----(3xs)--------------7-------88-888---------7-------88------------7-------88-888---------7-------88-1010-
D-5-7-8-7-8-7-------55-----5-7-8-7-8-7---88-888---5-7-8-7-8-7---88-88---5-7-8-7-8-7---88-888---5-7-8-7-8-7---88-1010-
A-5-7-8-5-8-7-------55-----5-7-8-5-8-7---66-666---5-7-8-5-8-7---66-88---5-7-8-5-8-7---66-666---5-7-8-5-8-7---66-8-8--
E-3-5-6---6-5-------33-----3-5-6---6-5------------3-5-6---6-5------66---3-5-6---6-5------------3-5-6---6-5-----------
  (   p.m   )         

Intro (2xs)

Verso 2 (primeira vez com palm mute)

Refrão Final
  C                C/B              Bb               A  
E----------------------------------------------------------------------
B----------------------------------------------------------------------
G----------------------------------------------------------------------
D-55-555-555-555-5-55-555-555-555-5-33-333-333-333-3-22-2222-2222-2222-
A-33-333-333-333-3-22-222-222-222-2-11-111-111-111-1-00-0000-0000-0000-
E----------------------------------------------------(------p.m.-------)

  C                C/B              Bb               A  
E------------------------------------------------------
B------------------------------------------------------
G------------------------------------------------------
D-55-555-555-555-5-55-555-555-555-5-33-333-333-333-3-2-
A-33-333-333-333-3-22-222-222-222-2-11-111-111-111-1-0-
E------------------------------------------------------		   
AcordesyTabs.com © 2008 Acordes y Tablaturas para guitarra. Tabs and Chords for guitar. Aviso Legal - Contacto
El uso de este sitio está sujeto a la aceptación de los términos y condiciones (11 usuarios online)