tablaturas, partituras y acordes para guitarra
Busca por banda/artista:
 
y/o título de la canción:
A B C D E F G H I J K L M N O P Q R S T U V W X Y Z 0 1 2 3 4 5 6 7 8 9 / Top 100 tabs
Categorías
Usuarios
usuario:
Darse de alta
password:
Artistas más visitados
Publicidad
TOP acordes y tablaturas de Voodoo glow skulls


New jerk swing
de Voodoo glow skulls
Puntúa este acorde/tab:      
(0.7/5)
Reportar este acorde/tab
  Añadir a tus favoritos
  Imprimir
Intro (acordes normais)

D# A# D G#

Verso

E---------------------------------------
B---------------------------------------
G-(-------3xs--------)------------------
D---------------2-3-----------------6---
A-5-3-5-3-----5-----3---5-3-5-3-----6---
E---------6-5------------------6-5--4---

Refrão

D# A# D G#

Verso 2

E----------------------------------------------------------------------------------------------------
B(-------------------------2xs--------------------------------)--------------------------------------
G----------------------------------------2----------------------*---variação1-----*--*-variação--2*--
D---------------2-3------------------2-3-----------------2-3-------------------------------------6---
A-5-3-5-3-----5-----3---5-3-5-3----5---------5-3-5-3--5-----3---5-3-5-3------66-66---5-3-5-3-----6---
E---------6-5------------------6-5-----------------6-5------------------6-5--44-44----------6-5--4---

Pré Refrão (2xs)

E-------------------------------------------------------------------
B-------------------------------------------------------------------
G-------------------------------------------------------------------
D-----------------8-8-8-8-8-8---------------------------------------
A-5-5-5-5-5-5-8-7-6-6-6-6-6-6-8-7-3-3-3-3-3-3-3-3-5-5-5-5-5-5-5-5---
E-3-3-3-3-3-3-6-5-------------6-5-1-1-1-1-1-1-1-1-3-3-3-3-3-3-3-3---

Ponte (2xs)

E---------------------
B---------------------
G---------------------
D-55------55555-------
A-33-6-5--33333-------
E----4-3--------------

Refrão

Verso

Ponte 2

E-------
B-------
G-------
D-5-----
A-3-6---
E---4---

Verso 2

Pré Refrão

Ponte (fim)		   
AcordesyTabs.com © 2008 Acordes y Tablaturas para guitarra. Tabs and Chords for guitar. Aviso Legal - Contacto
El uso de este sitio está sujeto a la aceptación de los términos y condiciones (24 usuarios online)