tablaturas, partituras y acordes para guitarra
Busca por banda/artista:
 
y/o título de la canción:
A B C D E F G H I J K L M N O P Q R S T U V W X Y Z 0 1 2 3 4 5 6 7 8 9 / Top 100 tabs
Categorías
Usuarios
usuario:
Darse de alta
password:
Artistas más visitados
Publicidad
TOP acordes y tablaturas de Megadeth


Hangar 18
de Megadeth
Puntúa este acorde/tab:      
(0.5/5)
Reportar este acorde/tab
  Añadir a tus favoritos
  Imprimir
Afinação: normal (E)
Tune: normal (E)

Contrabaixo: 5 cordas
Bass: 5 strings

(T) = tapping
   Dm
e |-1-1-1-1-|      
B |-3-3-3-3-|      
G |-2-2-2-2-| x4    
D |-0-0-0-0-|    
A |---------|    
E |---------|      

   Dm/5+
e |-1-1-1-1-|
B |-3-3-3-3-|
G |-3-3-3-3-|
D |-0-0-0-0-|
A |---------|
E |---------|

   Bm/5-/D
e |-1-1-1-1-|
B |-3-3-3-3-|
G |-4-4-4-4-|
D |-0-0-0-0-|
A |---------|
E |---------|

   D7
e |-5-5-5-5-|
B |-3-3-3-3-|
G |-5-5-5-5-|
D |-0-0-0-0-|
A |---------|
E |---------|


(0:24)
G |-----|-----|-----|-----|
D |-----|-----|-----|-----|
A |--0--|--1--|--2--|--3--|
E |-----|-----|-----|-----|
B |-----|-----|-----|-----|


G |-------------------|-------------------|-------------------|----------------------------------|
D |-------------------|-------------------|-------------------|-----------------7-5--------------|
A |--0--0-0--0__5-----|--1--1-1--1__5-----|--2--2-2--2__5-----|--3--3-3--3__5-------8-7-5--------|
E |----------------5--|----------------5--|----------------5--|---------------------------8-7-5--|
B |-------------------|-------------------|-------------------|----------------------------------|


Base:
2x:
G |------------|--------------------|--------------------|--------------------|------------|--------------------|------------|--------------------|
D |------------|--------------------|--------------------|--------------------|------------|--------------------|------------|--------------------|
A |--0------5--|--1-----------------|--2-----------------|--3-----------------|--0------5--|--1-----------------|--2------5--|--3-----------------|
E |------------|--------------------|--------------------|--------------------|------------|--------------------|------------|--------------------|
B |-----3-3----|-----3-3-3-3-3-3-3--|-----3-3-3-3-3-3-3--|-----3-3-3-3-3-3-3--|-----3-3----|-----3-3-3-3-3-3-3--|-----3-3----|-----3-3-3-3-3-3-3--|

G |------------|------------|------------|------------|
D |------------|------------|------------|------------|
A |--0------5--|--1------5--|--2------5--|--3------5--|
E |------------|------------|------------|------------|
B |-----3-3----|-----3-3----|-----3-3----|-----3-3----|


Refrão / Refrain:
G |--------------------------------------------------------------------------|
D |--------------------------------------------------------------------------|
A |--0-0--0__5__0--0-0---1__5__1--1-1---2__5__2--2-2---3__5__3--3-3---3__12--|
E |--------------------------------------------------------------------------|
B |--------------------------------------------------------------------------|


Base 1 do solo de guitarra / Guitar solo base 1:
         
G |--------------------------------------------------------------|
D |------7-----7-7------8-----8-8------9-----9-9------8-----8-8--|
A |--------------------------------------------------------------|
E |--5-5----5-------6-6----6-------7-7----7-------6-6----6-------|
B |--------------------------------------------------------------|

G |-----------------------------------------------------------------|
D |------7-----7-7------8-----8-8-------9-----9-9------10----10-10--|
A |-----------------------------------------------------------------|
E |--5-5----5-------6-6----6--------7-7----7-------8-8-----8--------|
B |-----------------------------------------------------------------|

G |--------------------------------------------------------------|
D |------7-----7-7------8-----8-8------9-----9-9------8-----8-8--|
A |--------------------------------------------------------------|
E |--5-5----5-------6-6----6-------7-7----7-------6-6----6-------|
B |--------------------------------------------------------------|

G |--------------------------------------4---------------|
D |------------------------------------------------------|
A |--0-0--0-0-0-0-0-0--1-1--1-1-1-1-1-1----2-2-2-2-2-2--|
E |------------------------------------------------------|
B |------------------------------------------------------|


- Base; Refrão / Refrain;

Base 2 do solo de guitarra / Guitar solo base 2:
G |--------------------------------------------------------------|
D |------7-----7-7------8-----8-8------9-----9-9------8-----8-8--|
A |--------------------------------------------------------------|
E |--5-5----5-------6-6----6-------7-7----7-------6-6----6-------|
B |--------------------------------------------------------------|

G |-----------------------------------------------------------------|
D |------7-----7-7------8-----8-8-------9-----9-9------10----10-10--|
A |-----------------------------------------------------------------|
E |--5-5----5-------6-6----6--------7-7----7-------8-8-----8--------|
B |-----------------------------------------------------------------|

G |--------------------------------------------------------------|
D |------7-----7-7------8-----8-8------9-----9-9------8-----8-8--|
A |--------------------------------------------------------------|
E |--5-5----5-------6-6----6-------7-7----7-------6-6----6-------|
B |--------------------------------------------------------------|

G |--------------------------------------4----------------------------------6----------------|
D |------------------------------------------------------------------------------------------|
A |--0-0--0-0-0-0-0-0--1-1--1-1-1-1-1-1----2-2-2-2-2-2-2--3-3--3-3-3-3-3-3----4-4-4-4-4-4-4--|
E |------------------------------------------------------------------------------------------|
B |------------------------------------------------------------------------------------------|


Base 3 do solo de guitarra / Guitar solo base 3:
  (3x):                                                    (3x):
G |--7------------------------|--7-------------------------|--7------------------------|--7----------------------------|
D |---------------------------|-------------------6-5------|---------------------------|----------------6-5-----5------|
A |-----5-5-5--5-8--5-5--5/6--|-----5-5-5--5-5/8------6-5--|-----5-5-5--5-8--5-5--5/6--|-----5-5-5--5/8-----6-5---6-5--|
E |---------------------------|----------------------------|---------------------------|-------------------------------|
B |---------------------------|----------------------------|---------------------------|-------------------------------|


Base 4 do solo de guitarra / Guitar solo base 4:
G |----------------------------|-----------------------------|----------------------------|------------------------------|
D |-------3-----------------5--|-------3---------------------|-------3-----------------5--|-------3----------------------|
A |----------------------------|----------------------3-2----|----------------------------|---------------3-2-----2------|
E |--1/2-----2-2--5--2-2--3----|--1/2-----2-2--5-2--2-----3--|--1/2-----2-2--5--2-2--3----|--1/2-----2--5-----3-2---3-2--|
B |----------------------------|-----------------------------|----------------------------|------------------------------|


Ponte / Bridge:
G |--------------------------------|
D |--------------------------------|
A |--------------------------------|
E |--3-2-0-2-3-5-3-2--2/3-2/3-2/3--|
B |--------------------------------|


(05:04):
G |-------|
D |-------|
A |-------|
E |--2..--|
B |-------|

G |-----------------------------------|
D |-----------------------------------|
A |-----------------------------------|
E |--3-2-0-2-3-5-3-2--2/3-2/3-2/3-2--|
B |-----------------------------------|		   
AcordesyTabs.com © 2008 Acordes y Tablaturas para guitarra. Tabs and Chords for guitar. Aviso Legal - Contacto
El uso de este sitio está sujeto a la aceptación de los términos y condiciones (75 usuarios online)